Портал для гитаристов
gtars.ru

Glass Jaw — Majour

 Artist - GlassJAw
Song   - Majour
Album  - Everything You Ever Wanted To Know About Silence
Tuning - DADGBE
Tabbed by David Diuguid (aka bmskate/DEFreak13)

pm... = palm mute
s     = slide
/    = hammer on/off
    = harmonic


Intro [clean]
 strum
|--------|-------3-|
|-7----3-|---3-----|    strum the chords, then
|-7----0-|-----0---| 

Glass Jaw — Majour

 Artist - GlassJAw
Song   - Majour
Album  - Everything You Ever Wanted To Know About Silence
Tuning - DADGBE
Tabbed by Justin Landry (munkynhead@hotmail.com)

pm... = Palm mute
S     = slide
/    = Hammer on/off
    = Harmonic


Intro [clean]
 Strum
|--------|-------3-|
|-7----3-|---3-----|
|-7----0-|-----0---|
|-5----x-|---------|
|-7----3-|-3-------|
|--------|---------|


Chorus [distortion]
|----3-------|---------|
|-7--3--3--3-|---------|
|-7--0--4--x-|---------|
|-5--x--2--3-|-0-0-0-0-|
|-7--3--0--3-|-0-0-0-0-|
|----------3-|-0-0-0-0-|


Verse [tremolo]
|-----------------------------------------|---|
|-0-----7-----------7-----------7---------|---|
|-5---9---9-------9---9-------9---9-------|---|
|---9-------9---9-------9---9-------9---9-|---|
|-7-----------8-----------7-----------8---|---|
|-----------------------------------------|-0-|


Pre-Chorus [Distortion/Compression]
|---------------3---------3-------------|
|---------------0---------0-------------|
|----5----------0---------0-------------|
|----3---xx-2-2-2-----2-2-2-0-0-0-0-0-5-|
|----3---xx-2-2-------2-2---0-0-0-0-0-5-|
|-14s3---xx-2-2----14s2-2---0-0-0-0-0-5-|

2nd Verse (2 guitars)
E|-15--12------------------------------------|