Портал для гитаристов
gtars.ru

Glassjaw — Motel Of The White Locust

 Artist: Glassjaw
Song: Motel of the White Locust
Album: Everything You Ever Wanted To Know About Silence (2000)
Tuning: D-A-D-G
Notes: Use a pick
h - Hammer-On
p - Pull-Off
~ - Let Ring

Intro: 
G|-----------------------------------------------------------------|
D|-------------------------------------------------------------12--|
A|-------------------------------------------------------10h12-----|
D|--0-0-0----------0-0-0---------0-0-0~--------0-0-0---------------|

G|---------------------------------------------------------------|
D|-----------------------------------------------------------12--|
A|-----------------------------------------------------10h12-----|
D|--0-0-0---0--0-0-0-0-0-0--0--0-0-0-0--0-0-0-0-0-0-0------------|


Verse 1:
G|--------------------------------------------------------------|
D|--------------------------------------------------------------|
A|--------------------------------------------------5--3--------|
D|--0-0--0--0-0-0--0--0-0-0--0--0-0--0--0-0--0--0--5--3--2h3p2--| (x2)


Chorus:
G|------------------------------------------------------|
D|------------------------------------------------------|
A|-------------------------------------------------3-2--|
D|-0-0-0---------0-0-0---------0-0-0---------0-0-0-3-2--| (x2)

G|--------------------------------------------------------|
D|--------------------------------------------------------|
A|--------3p2-----------3p2-----------3p2------------3-2--|
D|-0-0-0-0---3p2-0-0-0-0---3p2-0-0-0-0---3p2-0-0-0-0-3-2--| (x2)


Verse 2:
G|--------------------------------------------------------------|
D|--------------------------------------------------------------|
A|--------------------------------------------------5--3--------|
D|--0-0--0--0-0-0--0--0-0-0--0--0-0--0--0-0--0--0--5--3--2h3p2--| (x2)


Chorus:
G|------------------------------------------------------|
D|------------------------------------------------------|
A|-------------------------------------------------3-2--|
D|-0-0-0---------0-0-0---------0-0-0---------0-0-0-3-2--| (x2)

G|--------------------------------------------------------|
D|--------------------------------------------------------|
A|--------3p2-----------3p2-----------3p2------------3-2--|
D|-0-0-0-0---3p2-0-0-0-0---3p2-0-0-0-0---3p2-0-0-0-0-3-2--| (x2)


Interlude:
G|-----------------------------------------------------|
D|-----------------------------------------------------|
A|-----------------------------------------------------|
D|--0-0-0----------0-0-0---------0-0-0--0--0---0-0-0---|

  It gets difficult to tell what the bass is doing here
  Just play open D's
  You can hear the pull-offs in the right speaker
G|---------------------------------------|
D|---------------------------------------|
A|---------------------------------------|
D|--0-0-0-0-0-0-0-0-0--6p0-6p0-6p0-6p0---| (x2)


Outro:
G|---------------------------------------------------|
D|---------------------------------------------------|
A|---------------------------------------------------|
D|-0-0-0---------0-0-0---------0-0-0---------0-0-0---| (x4) 
Аккорд D-G

Glassjaw — Motel Of The White Locust

 Tuning: Dropp D
Tabber: Tom Lasala
Band: GlassJAw
Song: Motel of the White Locust
Album: Everything you Ever Wanted to Know About Silence

e|-----------3-3-3-3-3--------------3-3-3-3-3----------------------|
B|-----------3-3-3-3-3--------------3-3-3-3-3----------------------|
G|-----------1-1-1-1-1--------------1-1-1-1-1----------------------|
D|-----------------------------------------------------------------|
A|-0-0-0-0---------------0-0-0-0-------------------0-0-0-0---------|
D|-0-0-0-0---------------0-0-0-0-------------------0-0-0-0---------|


e|-----------3-3-3-3-3--------------3-3-3-3-3----------------------|
B|-----------3-3-3-3-3--------------3-3-3-3-3----------------------|
G|-----------1-1-1-1-1--------------1-1-1-1-1----------------------|
D|-----------------------------------------------------------------|
A|-0-0-0-0---------------0-0-0-0-------------------0-0-0-0---------|
D|-0-0-0-0---------------0-0-0-0-------------------0-0-0-0---------|


e|-----------3-3-3-3-3--------------3-3-3-3-3----------------------|
B|-----------3-3-3-3-3--------------3-3-3-3-3----------------------|
G|-----------1-1-1-1-1--------------1-1-1-1-1----------------------|
D|-----------------------------------------------------------------|
A|-0-0-0-0---------------0-0-0-0-------------------0-0-0-0---------|
D|-0-0-0-0---------------0-0-0-0-------------------0-0-0-0---------|


e|-----------3-3-3-3-3--------------3-3-3-3-3----------------------|
B|-----------3-3-3-3-3--------------3-3-3-3-3----------------------|
G|-----------1-1-1-1-1--------------1-1-1-1-1----------------------|
D|-----------------------------------------------------------------|
A|-0-0-0-0---------------0-0-0-0-------------------0-0-0-0---------|
D|-0-0-0-0---------------0-0-0-0-------------------0-0-0-0---------|

*This is the heavy screaming part (Welcome to..)*
e|-----------3-3-3-3-3--------------3-3-3-3-3----------------------|
B|-----------3-3-3-3-3--------------3-3-3-3-3----------------------|
G|-----------1-1-1-1-1--------------1-1-1-1-1----------------------|
D|-----------------------------------------------------------------|
A|-0-0-0-0---------------0-0-0-0-------------------0-0-0-0---------|
D|-0-0-0-0---------------0-0-0-0-------------------0-0-0-0---------|


e|-----------3-3-3-3-3--------------3-3-3-3-3----------------------|
B|-----------3-3-3-3-3--------------3-3-3-3-3----------------------|
G|-----------1-1-1-1-1--------------1-1-1-1-1----------------------|
D|-----------------------------------------------------------------|
A|-0-0-0-0---------------0-0-0-0-------------------0-0-0-0---------|
D|-0-0-0-0---------------0-0-0-0-------------------0-0-0-0---------|


e|-----------3-3-3-3-3--------------3-3-3-3-3----------------------|
B|-----------3-3-3-3-3--------------3-3-3-3-3----------------------|
G|-----------1-1-1-1-1--------------1-1-1-1-1----------------------|
D|-----------------------------------------------------------------|
A|-0-0-0-0---------------0-0-0-0-------------------0-0-0-0---------|
D|-0-0-0-0---------------0-0-0-0-------------------0-0-0-0---------|

*Just before the verse
e|-----------3-3-3-3-3--------------3-3-3-3-3----------------------|
B|-----------3-3-3-3-3--------------3-3-3-3-3----------------------|
G|-----------1-1-1-1-1--------------1-1-1-1-1----------------------|
D|-----------------------------------------------------------------|
A|-0-0-0-0---------------0-0-0-0-------------------0-0-0-0---------|
D|-0-0-0-0---------------0-0-0-0-------------------0-0-0-0---------|

*Palm Mute heavily(Combine the throbbin' in my head..)*
e|-----------------------------------------------------------------|
B|-----------------------------------------------------------------|
G|-----------------------------------------------------------------|
D|-----------------------------------------------------------------|
A|-----------------------------------------------------------------|
D|--3p0-0-0-0-0-0-3p0-0-0-0-0-0 3p0-0-0-0-0-0-3p0-0-0-0-0-0--------|

(Set a novena for all those lost..)
e|-----------------------------------------------------------------|
B|-----------------------------------------------------------------|
G|-----------------------------------------------------------------|
D|-----------------------------------------------------------------|
A|-----------------------------------------------------------------|
D|--3p0-0-0-0-0-0-3p0-0-0-0-0-0 3p0-0-0-0-0-0-3p0-0-0-0-0-0--------|


*Second guitar plays this at the end(The bloodstains on the sheets..)*
e|---------------------------|
B|---------------------------|
G|---------------------------|
D|----5---3------------------|
A|----5---3------------------|
D|----5---3------------------|


(I've whored myself for less than this..)
e|-----------------------------------------------------------------|
B|-----------------------------------------------------------------|
G|-----------------------------------------------------------------|
D|-----------------------------------------------------------------|
A|-----------------------------------------------------------------|
D|--3p0-0-0-0-0-0-3p0-0-0-0-0-0 3p0-0-0-0-0-0-3p0-0-0-0-0-0--------|

(And prayed..)
e|-----------------------------------------------------------------|
B|-----------------------------------------------------------------|
G|-----------------------------------------------------------------|
D|-----------------------------------------------------------------|
A|-----------------------------------------------------------------|
D|--3p0-0-0-0-0-0-3p0-0-0-0-0-0 3p0-0-0-0-0-0-3p0-0-0-0-0-0--------|


(Clench my fists and bang my head..)
e|---------------------------|
B|---------------------------|
G|---------------------------|
D|----5---3------------------|
A|----5---3------------------|
D|----5---3------------------|


*Play this part really heavy(Who could ever..?)*
e|---------------------------|
B|---------------------------|
G|---------------------------|
D|---0-0-0-0-----------------|
A|---0-0-0-0-----------------|
D|---0-0-0-0-----------------|

(Who the *** could ever...?)
e|---------------------------|
B|---------------------------|
G|---------------------------|
D|---0-0-0-0-----------------|
A|---0-0-0-0-----------------|
D|---0-0-0-0-----------------|

(Take the place of me...)
e|---------------------------|
B|---------------------------|
G|---------------------------|
D|---0-0-0-0-----------------|
A|---0-0-0-0-----------------|
D|---0-0-0-0-----------------|

(Who could ever..?)
e|---------------------------|
B|---------------------------|
G|---------------------------|
D|---0-0-0-0-----------------|
A|---0-0-0-0-----------------|
D|---0-0-0-0-----------------|

(Who the *** could ever...?)
e|---------------------------|
B|---------------------------|
G|---------------------------|
D|---0-0-0-0-----------------|
A|---0-0-0-0-----------------|
D|---0-0-0-0-----------------|

(Take the place of me...)
e|---------------------------|
B|---------------------------|
G|---------------------------|
D|---0-0-0-0-----------------|
A|---0-0-0-0-----------------|
D|---0-0-0-0-----------------|

(I've kissed up to God, my fists...)
e|-----------------------------------------------------------------|
B|-----------------------------------------------------------------|
G|-----------------------------------------------------------------|
D|-----------------------------------------------------------------|
A|-----------------------------------------------------------------|
D|--3p0-0-0-0-0-0-3p0-0-0-0-0-0 3p0-0-0-0-0-0-3p0-0-0-0-0-0--------|

(And prayed to keep my head..)
e|-----------------------------------------------------------------|
B|-----------------------------------------------------------------|
G|-----------------------------------------------------------------|
D|-----------------------------------------------------------------|
A|-----------------------------------------------------------------|
D|--3p0-0-0-0-0-0-3p0-0-0-0-0-0 3p0-0-0-0-0-0-3p0-0-0-0-0-0--------|

(And my fists all ***in' red!...)
e|-----------------------------------------------------------------|
B|-----------------------------------------------------------------|
G|-----------------------------------------------------------------|
D|-----------------------------------------------------------------|
A|-----------------------------------------------------------------|
D|--3p0-0-0-0-0-0-3p0-0-0-0-0-0 3p0-0-0-0-0-0-3p0-0-0-0-0-0--------|

*Palm Mute heavily(Through sick and health..)*
e|-----------------------------------------------------------------|
B|-----------------------------------------------------------------|
G|-----------------------------------------------------------------|
D|-----------------------------------------------------------------|
A|-----------------------------------------------------------------|
D|--3p0-0-0-0-0-0-3p0-0-0-0-0-0 3p0-0-0-0-0-0-3p0-0-0-0-0-0--------|

(I've kissed up to god these years I've focused..)
e|-----------------------------------------------------------------|
B|-----------------------------------------------------------------|
G|-----------------------------------------------------------------|
D|-----------------------------------------------------------------|
A|-----------------------------------------------------------------|
D|--3p0-0-0-0-0-0-3p0-0-0-0-0-0 3p0-0-0-0-0-0-3p0-0-0-0-0-0--------|

*Second guitar plays this at the end(In the valley of the ***in' 
locust!!..)*
e|---------------------------|
B|---------------------------|
G|---------------------------|
D|----5---3------------------|
A|----5---3------------------|
D|----5---3------------------|

*Play this part really heavy(Who could ever..?)*
e|---------------------------|
B|---------------------------|
G|---------------------------|
D|---0-0-0-0-----------------|
A|---0-0-0-0-----------------|
D|---0-0-0-0-----------------|

(Who the *** could ever...?)
e|---------------------------|
B|---------------------------|
G|---------------------------|
D|---0-0-0-0-----------------|
A|---0-0-0-0-----------------|
D|---0-0-0-0-----------------|

(Take the place of me...)
e|---------------------------|
B|---------------------------|
G|---------------------------|
D|---0-0-0-0-----------------|
A|---0-0-0-0-----------------|
D|---0-0-0-0-----------------|

(Who could ever..?)
e|---------------------------|
B|---------------------------|
G|---------------------------|
D|---0-0-0-0-----------------|
A|---0-0-0-0-----------------|
D|---0-0-0-0-----------------|

(Who the *** could ever...?)
e|---------------------------|
B|---------------------------|
G|---------------------------|
D|---0-0-0-0-----------------|
A|---0-0-0-0-----------------|
D|---0-0-0-0-----------------|

(Take the place of me...)
e|---------------------------|
B|---------------------------|
G|---------------------------|
D|---0-0-0-0-----------------|
A|---0-0-0-0-----------------|
D|---0-0-0-0-----------------| 
Аккорд D