Портал для гитаристов
gtars.ru

Glassjaw — Pretty Lush

 Author/Artist: Glassjaw
Title: Pretty Lush
Album: Everything You Ever Wanted To Know About Silence
Transcribed by: Ben Hellings
Email: legionofben@ntlworld.com

Tuning: DADGBE

-----------|----------------------------------------------|------|------------
-----------|----------------------------------------------|------|------------
-----------|----------------------------------------------|------|------------
-0-2-3-5-6-|-8-8-8---8-8-8---8-8-8---8-8-8---8-8-8---8-8--|------|------------
-0-2-3-5-6-|-7-7-7---7-7-7---7-7-7---7-7-7---7-7-7---7-7--|------|------------
-0-2-3-5-6-|-6-6-6---6-6-6---6-6-6---6-6-6---6-6-6---6-6--|------|------------
 Riff 1      Riff 2                                        Riff1              

-----------------------------------------------|------------------------------
-----------------------------------------------|------------------------------
-----------------------------------------------|------------------------------
-0-0-0---0-0-0---0-0-0---0-0-0---0-0-0---0-0-0-|-0-2-3-5-6----0-2-3---5-6-----
-0-0-0---0-0-0---0-0-0---0-0-0---0-0-0---0-0-0-|-0-2-3-5-6----0-2-3---5-6-----
-0-0-0---0-0-0---0-0-0---0-0-0---0-0-0---0-0-0-|-0-2-3-5-6----0-2-3---5-6-----
 Riff 3                                          Only pld by guitar 2(   )    

-------------------------|----------------------------------------------------
--8------8-8---------8---|----------------------------------------------------
--7------7---7---------7-|-8-8-8-8-8-8-8-8-10-10-10-10-10-10-10-10-12-12-12---
--5------5-----5---------|----------------------------------------------------
--5------5---------5-----|-6-6-6-6-6-6-6-6-8--8--8--8--8--8--8--8--10-10-10---
--5------5---------------|----------------------------------------------------
 Guitar 1                                                                     

----------------------------------------|----------|-------|--------|-------|-
----------------------------------------|----------|-------|--------|-------|-
-12-12-12-12-12-12-12-12-12-12-12-12-12-|----------|-------|--------|-------|-
----------------------------------------|-5-------|-1-----|-5-----|-1-----|-
-10-10-10-10-10-10-10-10-10-10-10-10-10-|-5-------|-1-----|-5-----|-1-----|-
----------------------------------------|-5-------|-1-x32-|-5-----|-1-x29-|-
                                          Guitar 2 over guitar 1              

-----------------------------------------------|----------------------------|-
-8---------------------------------------------|----------------------------|-
-7---------------------------------------------|----------------------------|-
-5---------------------------------------------|-5-----1-----5-----1-----1-3|-
-5---------------------------------------------|-5-----1-----5-----1-----1-3|-
-5---------------------------------------------|-5-x16-1-x16-5-x16-1-x12-1-3|-
 Guitar 1 basically messes about on this chord   Guitar 2 over Guitar 1       

-5-----5-----8-6-5-6-5---6-5---------|-------------------------------|--------
---8-----8-------------8-----8---8---|-------------------------------|--------
-----7-----7-------------------7---7-|-------------------------------|--------
-------------------------------------|--5-----1-----5-----1----------|--------
-------------------------------------|--5-----1-----5-----1----------|--------
-------------------------------------|--5-x16-1-x16-5-x16-1-x8-------|--------
 Guitar 1      or therabouts           Guitar 2                               

----------------------------|-----------------------------------|-------------
----------------------------|-----------------------------------|-------------
----------------------------|-----------------------------------|-------------
----------------------------|-0-2-3-5-6---0-2-3-5-6--0-2-3--0-2-|-------------
----------------------------|-0-2-3-5-6---0-2-3-5-6--0-2-3--0-2-|-------------
----------------------------|-0-2-3-5-6---0-2-3-5-6--0-2-3--0-2-|-------------
  lots of repeats and stuff   Both Guitars                                    

--------------------------------|--------------------------|----------------|-
--------------------------------|--------------------------|----------------|-
--------------------------------|--------------------------|----------------|-
-0-2-3-5-6---0-2-3-6-5----------|-0-2-3-5-6---0-2-3-5-6----|----------------|-
-0-2-3-5-6---0-2-3-6-5------x3--|-0-2-3-5-6---0-2-3-5-6----|----------------|-
-0-2-3-5-6---0-2-3-6-5----------|-0-2-3-5-6---0-2-3-5-6----|----------------|-
 A  (2Only)       (2Only)            (2Only)  (BothGuitars) Both Guitars Ax4  

-------|------------------------|-------|-------------------------------------
-------|------------------------|-------|-------------------------------------
-------|------------------------|-------|-------------------------------------
-0-2-3-|------------------------|-0-2-3-|-------------------------------------
-0-2-3-|------------------------|-0-2-3-|-------------------------------------
-0-2-3-|------------------------|-0-2-3-|-------------------------------------
         Repeats stuff again 
Аккорд A

Glassjaw — Pretty Lush

 Glassjaw - Pretty Lush

h=hammer on

each verse 
D-0-0-0--0-0-0--0-0-0--0-0-0--0-0-0--0-0-0--0-2-3-5-6  play x4

Next thing i don't know what to call it
each time it changes a little but here is the main riff it is one of those
the stuff in perenthasis is a cord
G---------------(7)---        G---------------(6)--
D---5h7-5---5h7-(5)-7-   or   D---4h6-4---4h6-(4)-6
A--5-----5-5-------5--        A--4-----4-4-------5-
D-5-------5-----------        D-4-------4----------

1st pre chorus thing
D-0-0-0-0-0-0-0-0-0-0-0-0-0-0-0-0-0-0-0-0-0-0-0-0-0-0-0
i don't really know the count but that is how it is played

2nd pre chorus thing-this is what i do but on the album he just does open notes
A----------------7-7-7-7-7-7-7-7-9-9-9-9-9-9-9-9-11-11-11-11-12
D-0-0-0-0-0-0-0-0

1st part to chorus x2
D-5-5-5-5-5-5-5-5-5-5-5-5-5-5-5-5-----------1-1-1-1-1-1-1-1-3-3-3-1-1-1-1

2nd chorus part x2
G--5-7-5-7-5-7-5-7-5-7--------------------
D-5---5---5---5---5----6-7-6-7-6-7-6-7-6-7
A---------------------6---6---6---6---6---
D-----------------------------------------

openining of bridge
D-0-2--0-2-3--0-2--0-2-3--0-2--0-2-3--0-2--0-2-3-5-6-0-2-3-5-6

next part in the bridge
D-0-2-3-6-5-0-2-3-5-6-0-2-3-6-5
just follow that pattern

this is a very easy song to play but fast in most parts
order:
verse
little thing?
1st pre chorus
little thing?
2nd pre chorus
1st part to chorus
2nd part to chorus
verse
little thing?
1st pre chorus
little thing?
2nd pre chorus
1st part to chorus
1st part to chorus
begining of bridge 
bridge
1st part to chorus
2nd part to chorus