Портал для гитаристов
gtars.ru

Gob — Fido Dildo

 Song: Fido Dildo
Band: Gob
Tabbed By: Lyle (gob_nofx_dude@hotmail.com)
http://www.hammie.homestead.com

Intro:do twice     
e|guit(1)------|guit(2)-----------------------------------------------|
B|-------------|------------------------------------------------------|
G|-9---9-------|------------------------------------------------------|
D|-9-9-9-9-7-6-|--9-9bend-9--9-8-9-8-9-8------------------------------|
A|-7-9-7-9-7-6-|------------------------------------------------------|
E|---7---7-5-4-|------------------------------------------------------|
Verse:                          |Chorus:
e|------------------------------|-------------------------------------|
B|------------------------------|-------------------------------------|
G|-9--------------9-------------|-------------------------------------|
D|-9-9------------9-9-7---------|----6-7-------------9----------------|
A|-7-9------------7-9-7---------|-2--6-7-------------9----------------|
E|---7-do-4-times---7-5-do-once-|-0--4-5-do-3-times--7----------------|

Bridge:          |last 2 notes of song
e|---------------|----------------------------------------------------|
B|---------------|----------------------------------------------------|
G|-6---6---6---4-|----------------------------------------------------|
D|-6-6-6-6-6-5-4-|-6--------------------------------------------------|
A|-4-6-4-6-4-5-2-|-6-2------------------------------------------------|
E|---4---4---3---|-4-0------------------------------------------------|

Intro,Verse,Chorus,Intro,Verse,Chorus,Bridge,Chorus, 

Gob — Fido Dildo

 Fido Dildo - gob
tabbed by: ryan b

Riff A: (twice)
A--7777--------7777------------
E--------7777-----------7-5-4--

Riff B: (3 times)
A--7777-----------
E----------7777---

Riff C: (once)
A--7777-----------7777------------------
E----------7777---------7777--55555555--

Riff D: (once)
A----------------------------------------
E--0-0--4/5---0-0--4/5---0-0-4/5/7-7777--

Riff A: (twice)
Riff B: (3 times)
Riff C: (once)
Riff D: (once)

Riff E: (once)
A--4444----------4444------------4444-----------22222222--
E----------4444------------4444-----------3333------------

Riff F: (once)
A--4444----------4444------------4444-----------2222-2--
E----------4444------------4444-----------3333----------

Riff G: (once)
A---------------------------------------
E--0-0--4/5---0-0--4/5---0-0-4/5--4--0--