Портал для гитаристов
gtars.ru

Gob — I Hear You Calling

          Gob - I Hear Yew Calling
         Guitar and Bass Lines


P.M.= malm mute
/=slide up
=slide down
h=hammer
*=


|---------------------------------------------------------|
|---------------------------------------------------------|
|---------------------------------------------------------|
|----4---4-4---4/6--4-------------------------------------|
|-/6---6-----6--------6-6-6-64-22---22---4/6--4-6--422--|
|----------------------------------4----4----------------4|

|---------------------------------------|
|---------------------------------------|
|---------------------------------------|
|---------------------------------------|
|-22---4/6--4-6--422---22---4/6--44--2-|
|----4----------------4----4------------|

|----------------------------------------------------------|
|----------------------------------------------------------|
|----------------------------------------------------------|
|-444444--6------------------------------------------------|
|-222222--4--666666--222222--666666--222222--666666--222222|
|------------444444--000000--444444--000000--444444--000000|
Bass for ^
|----------------------------------------------------------|
|----------------------------------------------------------|
|-444444--6------------------------------------------------|
|------------666666--000000--666666--000000--666666--000000|

|--------|-------------------------------------------------|
|--------|-------------------------------------------------|
|--------|-------------------------------------------------|
|--------|-444444-6----------------------------------------|
|-444444-|-222222-4--666666--222222--666666--222222--666666|
|-222222-|-----------444444--000000--444444--000000--444444|
Bass for ^
|--------|-------------------------------------------------|
|--------|-------------------------------------------------|
|--------|-444444-6----------------------------------------|
|-222222-|-----------666666--000000--666666--000000--666666|

|----------------|
|----------------|
|----------------|
|----------------|
|-222222--444444-|
|-000000--222222-|
Bass for ^
|----------------|
|----------------|
|----------------|
|-000000--444444-|

P.M.______________________________
|---------------------------------|
|---------------------------------|
|---------------------------------|
|-----------------666666----------|
|-222222--444444--444444--666666--|
|-000000--222222----------444444--|
Bass for^
|---------------------------------|
|---------------------------------|
|-----------------444444----------|
|-000000--222222----------444444--|

P.M._________________________
|------------------------------------|
|------------------------------------|
|------------------------------------|
|-----------------666666-------------|
|-222222--444444--444444--6666h6h6h--|
|-000000--222222----------4444h4h4h--|
Bass for ^
|------------------------------------|
|------------------------------------|
|-----------------444444-------------|
|-000000--222222----------444h4h4h4--|

|----------------------------------------------------------|
|----------------------------------------------------------|
|----------------------------------------------------------|
|-444444--6------------------------------------------------|
|-222222--4--666666--222222--666666--222222--666666--222222|
|------------444444--000000--444444--000000--444444--000000|
Bass for^
|----------------------------------------------------------|
|----------------------------------------------------------|
|-444444--6------------------------------------------------|
|------------666666--000000--666666--000000--666666--000000|



|--------|-------------------------------------------------|
|--------|-------------------------------------------------|
|--------|-------------------------------------------------|
|--------|-444444-6----------------------------------------|
|-444444-|-222222-4--666666--222222--666666--222222--666666|
|-222222-|-----------444444--000000--444444--000000--444444|
Bass for ^
|--------|-------------------------------------------------|
|--------|-------------------------------------------------|
|--------|-444444-6----------------------------------------|
|-222222-|-----------666666--000000--666666--000000--666666|

|----------------|
|----------------|
|----------------|
|----------------|
|-222222--444444-|
|-000000--222222-|
Bass for ^
|----------------|
|----------------|
|----------------|
|-000000--222222-|

P.M.______________________________
|---------------------------------|
|---------------------------------|
|---------------------------------|
|-----------------666666----------|
|-222222--444444--444444--666666--|
|-000000--222222----------444444--|
Bass for ^
|---------------------------------|
|---------------------------------|
|-----------------444444----------|
|-000000--222222----------444444--|

P.M._________________________
|------------------------------------|
|------------------------------------|
|------------------------------------|
|-----------------666666-------------|
|-222222--444444--444444--6666h6h6h--|
|-000000--222222----------4444h4h4h--|
Bass for ^
|------------------------------------|
|------------------------------------|
|-----------------444444-------------|
|-000000--222222----------444h4h4h4--|

SOLO

|---------------------------------------------------------|
|---------------------------------------------------------|
|---------------------------------------------------------|
|----4---4-4---4/6--4-------------------------------------|
|-/6---6-----6--------6-6-6-64-22---22---4/6--4-6--422--|
|----------------------------------4----4----------------4|

|---------------------------------------|
|---------------------------------------|
|---------------------------------------|
|---------------------------------------|
|-22---4/6--4-6--422---22---4/6--44--2-|
|----4----------------4----4------------|

|---------------------------------------------------------|
|---------------------------------------------------------|
|---------------------------------------------------------|
|----4---4-4---4/6--4-------------------------------------|
|-/6---6-----6--------6-6-6-64-22---22---4/6--4-6--422--|
|----------------------------------4----4----------------4|

|---------------------------------------|
|---------------------------------------|
|---------------------------------------|
|---------------------------------------|
|-22---4/6--4-6--422---22---4/6--44--2-|
|----4----------------4----4------------|

Bass after SOLO

|---------------------------------|
|---------------------------------|
|-----------------444444----------|
|-000000--222222----------444444--|

|---------------------------------|
|---------------------------------|
|-----------------444444----------|
|-000000--222222----------444444--|

P.M.______________________________
|---------------------------------|
|---------------------------------|
|---------------------------------|
|-----------------666666----------|
|-222222--444444--444444--666666--|
|-000000--222222----------444444--|
Bass for^
|---------------------------------|
|---------------------------------|
|-----------------444444----------|
|-000000--222222----------444444--|

P.M.______________________________
|---------------------------------|
|---------------------------------|
|---------------------------------|
|-----------------666666----------|
|-222222--444444--444444--666666--|
|-000000--222222----------444444--|
Bass for ^
|---------------------------------|
|---------------------------------|
|-----------------444444----------|
|-000000--222222----------444444--|

|---------------------------------|
|---------------------------------|
|---------------------------------|
|-----------------666666----------|
|-222222--444444--444444--666666--|
|-000000--222222----------444444--|
Bass for ^
|---------------------------------|
|---------------------------------|
|-----------------444444----------|
|-000000--222222----------444444--|

|---------------------------------|
|---------------------------------|
|---------------------------------|
|-----------------666666----------|
|-222222--444444--444444--666666--|
|-000000--222222----------444444--|
Bass for ^
|---------------------------------|
|---------------------------------|
|-----------------444444----------|
|-000000--222222----------444444--|

|---------------------------------|
|---------------------------------|
|---------------------------------|
|-----------------666666----------|
|-222222--444444--444444--666666--|
|-000000--222222----------444444--|
Bass for ^
|---------------------------------|
|---------------------------------|
|-----------------444444----------|
|-000000--222222----------444444--|

|---------------------------------|
|---------------------------------|
|---------------------------------|
|-----------------666666----------|
|-222222--444444--444444--666666--|
|-000000--222222----------444444--|
Fadd out...........................

|---------------------------------|
|---------------------------------|
|---------------------------------|
|-----------------666666----------|
|-222222--444444--444444--666666--|
|-000000--222222----------444444--|
...................................

|---------------------------------|
|---------------------------------|
|---------------------------------|
|-----------------666666----------|
|-222222--444444--444444--666666--|
|-000000--222222----------444444--|
...................................


Thats how i think it is tabbed if yew have any questions or corrections or would like more 
tabs and or bass tabs feel free to email me at crazy_surfer_13@hotmail.com 
Аккорд Fadd

Gob — I Hear You Calling

 I Hear You Calling
GOB

Intro
E|-----------------------------------------|
B|-----------------------------------------|
G|-----------------------------------------|
D|-----------6-----------------------------|
A|-6-9-6-9-9---9--6-6-6-6---2-2---2-2-4/6--|
E|------------------------4-----4----------|

E|----------------------------------------------------|
B|----------------------------------------------------|
G|----------------------------------------------------|
D|----------------------------------------------------|
A|-4-6-4-2-2---2-2---4/6-4-6-4-2-2---2-2---4/6-4-4-2--|
E|-----------4-----4---------------4-----4------------|

Verse
E|--------------------------------------------------------|
B|--------------------------------------------------------|
G|--------------------------------------------------------|
D|-44444444-6---------------------------------------------|
A|-22222222-4-66666666-22222222-66666666-2222222-44444444-|
E|------------44444444-00000000-44444444-0000000-22222222-|  x2

Chorus
E|---------------------------------------------|
B|---------------------------------------------|
G|---------------------------------------------|
D|-22222222-44444444-66666666-6666666666666666-|
A|-22222222-44444444-44444444-6666666666666666-|
E|-00000000-22222222----------4444444444444444-|

E|----------------------------------------------|
B|----------------------------------------------|
G|----------------------------------------------|
D|-22222222-44444444-66666666-66666666/44444444-|
A|-22222222-44444444-44444444-66666666/44444444-|
E|-00000000-22222222----------44444444/22222222-|

The solo is the same as the intro. 

Gob — I Hear You Calling

 standard tuning but im not really putting the time into the solo or intro,
you can figure that out yourself its actualy not hard at all, if you know the song.

                    intro and solo
|--------------------------------------------------
|--4-7-4-7-7-4-7/9-7-7-4----4-0-0-0-0-2-0-2h4------
|--------------------------------------------------
|--------------------------------------------------
|--------------------------------------------------
|--------------------------------------------------

|---------------------------------------------------
|-2-2-2-0-0-0-0-2-0-2h4-2-2-2-0-0-0-0-2-0-2h4-2-2-0-
|---------------------------------------------------
|---------------------------------------------------
|---------------------------------------------------
|---------------------------------------------------

                   verse 2X
|---------------------------------------------------
|---------------------------------------------------
|--4----4--4--4--4--4--4--6----6--6--6--6--6--6------
|--4----4--4--4--4--4--4--6----6--6--6--6--6--6-----
|--2----2--2--2--2--2--2--4----4--4--4--4--4--4-----
|---------------------------------------------------


|---------------------------------------------------
|---------------------------------------------------
|---------------------------------------------------   2
|--2----2----2--2--2--6----6----6--6--6--6----------   X
|--2----2----2--2--2--6----6----6--6--6--6----------
|--0----0----0--0--0--4----4----4--4--4--4----------


|---------------------------------------------------
|---------------------------------------------------
|---------------------------------------------------
|--2----2----2--2--2--4----4----4--4--4--4----------
|--2----2----2--2--2--4----4----4--4--4--4----------
|--0----0----0--0--0--2----2----2--2--2--2----------

                      chorus
|---------------------------------------------------
|---------------------------------------------------
|--4----4--4--4--4--4--4--6----6--6--6--6--6--6-----
|--4----4--4--4--4--4--4--6----6--6--6--6--6--6-----
|--2----2--2--2--2--2--2--4----4--4--4--4--4--4-----
|---------------------------------------------------
pm .    .  .  .  .  .  .  .    .  .  .  .  .  .

|---------------------------------------------------
|---------------------------------------------------
|---------------------------------------------------
|--2----2----2--2--2--6----6----6--6--6--6----------
|--2----2----2--2--2--6----6----6--6--6--6----------
|--0----0----0--0--0--4----4----4--4--4--4----------
pm .    .    .  .  .  .    .    .  .  .  .


|---------------------------------------------------
|---------------------------------------------------
|---------------------------------------------------
|--4----4----4--4--4--4--6----6----6--6--6--6-------
|--4----4----4--4--4--4--6----6----6--6--6--6-------
|--2----2----2--2--2--2--4----4----4--4--4--4-------
pm .    .    .  .  .  .  .    .    .  .  .  .


|---------------------------------------------------
|---------------------------------------------------
|--------------------------6--6--6----4--4--4-------
|--4----4----4--4--4--4----6--6--6----4--4--4-------
|--4----4----4--4--4--4----4--4--4----2--2--2-------
|--2----2----2--2--2--2-----------------------------
pm .    .    .  .  .  .
well thats all there is really. if you have any issues just e-mail me at meadowskid@hotmail.com 

Gob — I Hear You Calling

 Gob
I hear you calling
tabbed by: Thomas (nofx_69_@Hotmail.com)

> = play  8 times
 Verse:

G:----------------------------|
D:----------------------------|
A:-2>-4-----------------------|
E:------4-4>-0>-4>-0>-4>-0>-2>|

Chorus:
                end of 2nd chorus
G:-----------|--------|
D:-----------|--------|
A:-------4>--|--------|
E:-0>-2>---4>|-0-0-2-2|

Last Chourus:

G:---------------------|
D:---------------------|
A:-------4>------------|
E:-0>-2>----4-4-4-4-2-2|
 

Gob — I Hear You Calling

 

--------------------------------------------------------------------
--------------------------------------------------------------------
--------------------------------------------------------------------
------4---444---4s6-4-----------------------------------------------
---s6---6-----6-------4s66-4-6-4s22---2-2---s6--4-6-4s22----2-2---s6
------------------------------------4----4---------------4----4-----

--------------------------------------------------------------------
--------------------------------------------------------------------
--------------------------------------------------------------------
--------------------------------------------------------------------
---4-6--4s22---2-2---s6---444--2-2----------------------------------
-------------4-----4------------------------------------------------