Портал для гитаристов
gtars.ru

Gob — Ive Been Up These Steps

 -----------------------------------------------------------------------------
	            I've Been up These Steps - GOB
-----------------------------------------------------------------------------
Tabbed by:Peter Cooper
Email:pkfudge@hotmail.com

Tuning:Standard - EADGBe

Use your first finger to mute E string on powerchords with muted strings.
e|---------------------------------------------------------------------------|
B|---------------------------------------------------------------------------|
G|---------------------------------------------------------------------------|
D|-3-3-3-3--3-3-3-3--6-6-6-6--6-6-6-6--1-1-1-1-1-1-1-1-1-1-1-1-1-1-1-1-------|
A|-1-1-1-1--3-3-3-3--4-4-4-4--6-6-6-6--1-1-1-1-1-1-1-1-1-1-1-1-1-1-1-1-------|
E|-x-x-x-x--1-1-1-1--x-x-x-x--4-4-4-4--x-x-x-x-x-x-x-x-x-x-x-x-x-x-x-x-------|
 pm. . . .  . . . .  . . . .  . . . .  . . . . . . . . . . . . . . . .
                              repeat

            If it's easier, you can also play it this way...
e|---------------------------------------------------------------------------|
B|---------------------------------------------------------------------------|
G|---------------------------------------------------------------------------|
D|---------------------------------------------------------------------------|
A|-8-8-8-8--3-3-3-3--11-11-11-11--6-6-6-6--1-1-1-1-1-1-1-1-1-1-1-1-1-1-1-1---|
E|-6-6-6-6--1-1-1-1--9--9--9--9---4-4-4-4--1-1-1-1-1-1-1-1-1-1-1-1-1-1-1-1---|
 pm. . . .  . . . .  .  .  .  .   . . . .  . . . . . . . . . . . . . . . .
                            repeat

      Key:
 pm.  palm mute
 /  slide up
   slide down
 h  hammer-on
 p  pull-off
 ~  vibrato
 +  harmonic
 x  Mute note
==========================================================================
Any questions/comments?: E-Mail me at pkfudge@hotmail.com 
Аккорд E

Gob — Ive Been Up These Steps

 -------------------------------------------------------------------------------
			     I'VE BEEN UP THESE STEPS - Gob
-------------------------------------------------------------------------------

Tabbed by: Matt Longpre
Email: nemesis_257@shaw.ca

Tuning: Eb (tune all your strings down a half tone)

This is a brand new one off of Foot In Mouth Disease.

Riff 1
eb|-----------------------00--00--00--00--------------------------------------|
Bb|-----------------------00--00--00--00--------------------------------------|
Gb|-4444------7777------------------------------------------------------------|
Db|-4444-4444-7777-7777-2222222222222222--------------------------------------|
Ab|-2222-4444-5555-7777-2222222222222222--------------------------------------|
Eb|------2222------5555-0000000000000000--------------------------------------|

Riff 2
eb|---------------------------------------------------------------------------|
Bb|---------------------------------------------------------------------------|
Gb|---------------------------------------------------------------------------|
Db|-55555555-22222222---------------------------------------------------------|
Ab|-55555555-22222222---------------------------------------------------------|
Eb|-33333333-00000000---------------------------------------------------------|

Riff 3
eb|---------------------------------------------------------------------------|
Bb|---------------------------------------------------------------------------|
Gb|----------77---------------------------------------------------------------|
Db|-55555555-77-7777----------------------------------------------------------|
Ab|-55555555-55-7777----------------------------------------------------------|
Eb|-33333333----5555----------------------------------------------------------|

Riff 4
eb|---------------------------------------------------------------------------|
Bb|---------------------------------------------------------------------------|
Gb|---------------------------------------------------------------------------|
Db|-------------------222-----------------------------------------------------|
Ab|-000-22-555-----22---------------------------------------------------------|
Eb|------------000------------------------------------------------------------|

That should get you through the whole song.  Email me if you have questions.

=============================================================================== 
Аккорд Eb

Gob — Ive Been Up These Steps

 Gob - I've Been Up These Steps
Tabbed By: Ian M.

Tuning: Half Step Down (Eb Ab Db Gb)

Submitted By: Stand Alone (projectwyze13@hotmail.com)

No bass for the intro of the song. The bass comes in at 0:37.
If you've got any questions or comments, email me at ian_miron87@hotmail.com.

0:37 Bass comes in (Bass Intro)
Gb|-----------------------------------------------------------------------||
Db|--------------------------------------------------------------------|| x2
Ab|-------------5555------------7--7-----7--7-----------------------------||
Eb|-7777--2222--------5555--000---0--000---0------------------------------||

Verse Part 1 (0:48)
Gb|-----------------------------------------------------------------------||
Db|--------------------------------------------------------------------|| x2
Ab|-------------5555------------------------------------------------------||
Eb|-7777--2222--------5555--00-000-000-0-0000-----------------------------||

Verse Part 2 (0:59)
Gb|-----------------------------------------------------------------------||
Db|--------------------------------------------------------------------|| x4
Ab|------------5--0-000---------------------------------------------------||
Eb|-3-3-03333-------------------------------------------------------------||

Chorus (1:10)
Gb|-----------------------------------------------------------------------||
Db|--------------------------------------------------------------------|| x2
Ab|-----------5555---------77-7---77-7------------5555---------77---------||
Eb|-7777-2222-----5555--00--0--00--0---7777--2222----5555--00--07-0000000-||

Verse Part 1 (1:22) x4
Verse Part 2 (1:44) x4

Bridge (1:55)                         Play 1st Time     Play 2nd Time
Gb|-------------------------------------|----------|-|--------------------||
Db|-------------------------------------|----------|-|------------------||x2
Ab|---------555---------777---------555-|---7--7-7-|-|--------------------||
Eb|-333-5-7-----000-5-7-----333-5-7-----|-00-00-0--|-|---00000000---------||

Bass Doesnt Play (2:08)

Verse Part 2 (2:19) x4

Outro Part 1 (2:31)           4th Time Play This
Gb|--------------------|----|--------------------------------------------||
Db|----------------|-x3-|------------------------------------------------|| 
Ab|--------------------|----|--------------------------------------------||
Eb|-33333333--00000000-|----|-33333333--0--------------------------------||

Outro Part 2 (2:42)
Gb|-----------------------------------------------------------------------||
Db|-----------------------------------------------------------------------||
Ab|--------------5555----------77-----------------------------------------||
Eb|--7777--2222--------5555--00-------------------------------------------||

And that's it. Enjoy! 
Аккорд EbАккорд AbАккорд DbАккорд Gb