Портал для гитаристов
gtars.ru

Gob — Leave Me Alone

 Leave Me Alone - gob
tabbed by: ryan b

Riff A: (twice)
A--5555---------5555--2222--
E----------3333-------------

***rest***

Riff B: ( 4 times)
A--55555555--------------22222222----------------
E---------------33333333---------------55555555--

Riff C: (3 times)
A----------------
E--3333--555555--

Riff D: (once)
A--5--------------
E------5--33333---

Riff E: (3 times)
A--5555--------------------
E----------5555--33333333--

Riff F: (once)
A--5555-------------
E----------5555--3--

Riff A: (4 times)
Riff B: (4 times)
Riff C: (3 times)

Riff G: (once)
A--5---------------
E------5---3/7777--

Riff E: (7 times)

Riff H: (once)
A--5---------
E------5--3--