Портал для гитаристов
gtars.ru

Gob — Lobster Boy

 Song: Lobster Boy
Band: Gob
Tabbed by: Lyle (gob_nofx_dude@hotmail.com)


Intro:do twice      |do once
e|gui(1)------------|gui(2)-------------------------------------------|
B|------------------|-------------------------------------------------|
G|-9---4-3---9-11---|-4-6-4-6-8-6-4-4-------3-4-----------------------|
D|-9-4-4-3-6-9-11-9-|-----------------6-8-6---------------------------|
A|-7-4-2-1-6-7-9--9-|-------------------------------------------------|
E|---2-----4------7-|-------------------------------------------------|

Verse:                                |Chorus:
e|------------------------------------|-------------------------------|
B|------------------------------------|-------------------------------|
G|-9---4-3---9-11-------------9-11----|-4-----------------------------|
D|-9-4-4-3-6-9-11-9-----------9-11-9--|-4-4---4-----------------------|
A|-7-4-2-1-6-7-9--9-----------7-9--9--|-2-4-2-4-----------------------|
E|---2-----4------7-d0-twice-------7--|---2-0-2-----------------------|

Intro,Verse,Chorus,Verse,Chorus,Verse, 

Gob — Lobster Boy

 Lobster Boy - gob
tabbed by: ryan b

Riff A: (4 times)
A--7777-------2-1----7777-9999------------
E-------2222------4-------------77777777--

Riff B: (once)
A--7777-9999---------
E------------7777-7--

***brief pause, then go into chorus***

Riff C: (twice)
A--22222222-------------------------------
E------------22222222--00000000-22222222--

Riff A: (twice)
Riff B: (once)

***brief pause (drum fill), then again into the chorus***

Riff C: (twice)
Riff A: (once)

Riff D: (once)
A--7777-------2-1----7777-9999-----
E-------2222------4-------------7--