Портал для гитаристов
gtars.ru

Gob — Youre Too Cool

 Artist: Gob
Title: You're Too Cool
Album:Too late... No Friends 
Tabbed By: KoLeEnA  
Email:colina99@home.com


Riff 1
E:-------------------------------------------------------
B:-------------------------------------------------------
G:-------------------------------------------------------
D:----------77777777-55555555-777-6-4--------------------
A:-77777777-55555555-77777777-555-4-2--------------------
E:-55555555----------------------------------------------
Riff 2
E:-------------------------------------------------------
B:-------------------------------------------------------
G:-------------------------------------------------------
D:----------77777777-----------77777777------------------
A:-77777777-55555555-22222222--55555555------------------
E:-55555555----------00000000----------------------------
Riff 3
E:-------------------------------------------------------
B:-------------------------------------------------------
G:-------------------------------------------------------
D:-77777777-99999999-------------------------------------
A:-55555555-77777777-------------------------------------
E:-------------------------------------------------------
Riff 4
E:-------------------------------------------------------
B:-------------------------------------------------------
G:-------------------------------------------------------
D:-------------------------------------------------------
A:-22222222----------------------------------------------
E:-00000000----------------------------------------------
Riff 5
E:-------------------------------------------------------
B:-------------------------------------------------------
G:-------------------------------------------------------
D:----------77777777-------------------------------------
A:-99999999-55555555-77777777----------------------------
E:-77777777----------55555555----------------------------

Order:
Riff 1 x2
Riff 2 x4
Riff 3 x3
Riff 4 x2
Riff 3 x3
Riff 4 x2
Riff 3 x3
Riff 4 x2
Riff 3 x3
Riff 4 x2
Riff 3 x3
Riff 4 x2
Riff 3 x3
Riff 4 x2
Riff 5 x4 

Gob — Youre Too Cool

 Artist: Gob
Title: You're Too Cool
Album:Too late... No Friends
Tabbed By: KoLeEnA
Email:colina99@home.com


Riff 1
E:-------------------------------------------------------|
B:-------------------------------------------------------|
G:-------------------------------------------------------|
D:----------77777777-55555555-777-6-4--------------------|
A:-77777777-55555555-77777777-555-4-2--------------------|
E:-55555555----------------------------------------------|
Riff 2
E:-------------------------------------------------------|
B:-------------------------------------------------------|
G:-------------------------------------------------------|
D:----------77777777-----------77777777------------------|
A:-77777777-55555555-22222222--55555555------------------|
E:-55555555----------00000000----------------------------|
Riff 3
E:-------------------------------------------------------|
B:-------------------------------------------------------|
G:-------------------------------------------------------|
D:-77777777-99999999-------------------------------------|
A:-55555555-77777777-------------------------------------|
E:-------------------------------------------------------|
Riff 4
E:-------------------------------------------------------|
B:-------------------------------------------------------|
G:-------------------------------------------------------|
D:-------------------------------------------------------|
A:-22222222----------------------------------------------|
E:-00000000----------------------------------------------|
Riff 5
E:-------------------------------------------------------|
B:-------------------------------------------------------|
G:-------------------------------------------------------|
D:----------77777777-------------------------------------|
A:-99999999-55555555-77777777----------------------------|
E:-77777777----------55555555----------------------------|

Order:
Riff 1 x2
Riff 2 x4
Riff 3 x3
Riff 4 x2
Riff 3 x3
Riff 4 x2
Riff 3 x3
Riff 4 x2
Riff 3 x3
Riff 4 x2
Riff 3 x3
Riff 4 x2
Riff 3 x3
Riff 4 x2
Riff 5 x4 

Gob — Youre Too Cool

 Song:Your too cool
Band:GOB
Album:too late.. no friends
tabbed by:Paolo Simonato(simonato@cyberbeach.net)



Intro
G:---------------------------------------------------------------
D:---------------------------------------------------------------
A:----5>-7>--55-4-2--------------------------------------------------
E:-5>------------------------------------------------------------

Verse
G:---------------------------------------------------------------
D:---------------------------------------------------------------
A:----5>----5>-------------------------------------------------------
E:-5>----0>----------------------------------------------------------

Chorus
G:---------------------------------------------------------------
D:---------------------------------------------------------------
A:-5>-7>-5>-7>-5>-7>---------------------------------------------------------
E:-------------------5>--------------------------------------------

Ending
G:---------------------------------------------------------------
D:---------------------------------------------------------------
A:---6-7-8---4-5-6---2-3-4---4-5-6---------------------------------------------
E:-7-------5-------3-------5-----------------------------------------