Портал для гитаристов
gtars.ru

Godhead — Fucked Up

 FUCKED UP  [Power Tool Stigmata]
the beginning


Created by: Matt (confirmed by Janne P.)
email: Plasticsociety18@aol.com

http://godhead.hollowgen.net


E-----------|
B-----------|
G-----------|
D-----------|       Repeat this four times
A----7-6-7--|
E--5--------|

E-------------------------------------------------|
B-------------------------------------------------|
G-------------------------------------------------|
D------6-------6-------6-7---6--------------------|
A----5---5---5---5---5---------5------------------|
E--4-------4-------4-------4-----4----------------|

You play this simultaneously with the previous one,
and play it at a fairly slow pace.