Портал для гитаристов
gtars.ru

Godsmack — Bad Religion

 intro/ main verse:

E|----------------------------|  x= muted strings (the mutes aren' im any order)
B|----------------------------|
G|----------------------------|
D|--2-x-2-x-2-2-x-2-2-x-2-2---|
A|--2-x-2-x-2-2-x-2-2-x-2-2---|
D|--0-x-0-x-0-0-x-0-0-x-0-0---|


   chorus:

E|--------------------------------------|  struming's off.
B|--------------------------------------|    
G|--------------------------------------|
D|--5-5-5-5-5/7-7-7-7-7-7/5-5-5-5-5-----|
A|--3-3-3-3-3/5-5-5-5-5-53-3-3-3-3-----|
D|--------------------------------------|

  pre-solo:

E|-----------------------------------------|
B|-----------------------------------------|
G|-----------------------------------------|
D|-----------------------------------------|
A|--9-9-9-9-9/10-9-9-9-9-9-9--7--5--4-----|   (   4                 2        )
D|--7-7-7-7-7/8-87-7-7-7-7-7--5--3--2-----|  (the 2 part might be a 0 instead)

solo:

E|---------------------------------------------------|
B|---------------------------------------------------|
G|--12--0-0--10-------0-0--9-0-8-0-0-----------------|
D|--------------9/10------------------9/10---9/10----|
A|---------------------------------------------------|
D|---------------------------------------------------| 

Godsmack — Bad Religion

 TUNING: drop d (D-A-D-G-B-E)


     VERSE RIFF: (just play around with the open D5 chord)

    E|-------------------|-------------------------------------------|
    B|-------------------|-------------------------------------------|
    G|-------------------|-------------------------------------------|
    D|--0--0--00--0--00--|---0--0--00--0--0--00--0--0--00--0--0--00--|
    A|--0--0--00--0--00--|---0--0--00--0--0--00--0--0--00--0--0--00--|
    D|--0--0--00--0--00--|---0--0--00--0--0--00--0--0--00--0--0--00--|

     CHORUS:

    E|-----------------------------------------------------|
    B|-----------------------------------------------------|
    G|---5--55--55--55--55--55-----7--77--77--77--77--77---|
    D|---x--xx--xx--xx--xx--xx-----x--xx--xx--xx--xx--xx---|
    A|---3--33--33--33--33--33-----5--55--55--55--55--55---|
    D|-----------------------------------------------------|

    E|---------------------------------------------------|
    B|---------------------------------------------------|
    G|---5--55--55--55--55--55---------------------------|
    D|---x--xx--xx--xx--xx--xx---------0--0--00--0--00---|
    A|---3--33--33--33--33--33---------0--0--00--0--00---|
    D|---------------------------------0--0--00--0--00---|

     FILL: (after 2nd chorus)

    E|-------------------------------------------|
    B|-------------------------------------------|
    G|-------------------------------------------|
    D|-------------------------------------------|
    A|---7--7---9h7----7--7---9h7---7--5--3--2---|
    D|---7--7---9h7----7--7---9h7---7--5--3--2---|

     BRIDGE:

    E|-------------------------------------------------------------------------------|
    B|-------------------------------------------------------------------------------|
    G|-------------------------------------------------------------------------------|
    D|-------------------------------------------------------------------------------|
    A|---5---------------3-----------------------2--------------1--------------------|
    D|-------0-0--0-----------0-2-0-2-0-2--0---------0-0--0---------0-2-0-2-0-2--0---| 
Аккорд B-EАккорд D5

Godsmack — Bad Religion

 Godsmack-Bad Religion
Tab by Dan Scott

Drop D Tuning (D,A,D,G)

intro

G:|----------------|
D:|----------------|
A:|----------------|
D:|-0-0-00-0-00----|

verse (x6):
   
G:|------------------------------|-----------|
D:|-----------------------------*|-----------|
A:|-----------------------------*|-----------|
D:|0-0-00-0-0-00-0-0-00-0-0-00---|(0)--------|
                                  last time let ring
1st Chorus:
                                  
G:|------------------|-----------------|
D:|------------------|-----------------|
A:|-5333335333335333-|8555558555558555-|
D:|------------------|-----------------|


                                    
G:|------------------|-----------------|
D:|------------------|-----------------|
A:|-5333335333335333-|-----------------|
D:|------------------|-0-0-00-0-00-----|

Verse (5x)

2nd Chorus:                              3x      
G:|------------------|-----------------------|
D:|------------------|-----------------------|
A:|-5333335333335333-|-8555558555558555------|
D:|------------------|-----------------------|


                                    4th time
G:|------------------|-------------------------|
D:|------------------|-------------------------|
A:|-5333335333335333-|-7
Аккорд DАккорд G