Портал для гитаристов
gtars.ru

Godsmack — Forgive Me

 Godsmack - Forgive me
Tabbed By: Robert Vitale
EMail: wickitguitarplyr@aol.com

tuning-c,g,c,f,a,d

guitar1
-----------------------------0---------------------
--------------------------------------------6------
-----------------------10-------------------------9
---------------------------------------------------
---------------------------------------------------
---------------------------------------------------

guitar2
---------------------------------------------------
---------------------------------------------------
---------------------------------------------------
---2------------------------2----------------------
-0-2-2-2-2--0-2-2-2-2-----0-2-2-2-2----0-2-2-2-2---
-0-2-2-2-2--0-2-2-2-2-----0-2-2-2-2----0-2-2-2-2---