Портал для гитаристов
gtars.ru

Godsmack — Get Up Get Out

           Godsmack
          8.GET UP GET OUT
          Intro (play a few times)
          
          E 😐 ------------------|------------------|
          B 😐 --------------1---|------------------|
          G :|*----1^2^1-------2-|----1^2^1---------|
          D :|*----------3-0-----|------------0---0-|
          A 😐 ------------------|------------------|
          D 😐 0-0---------------|0-0-------3---2---|
          
          E :|------------------|---------------- |------|
          B :|--------------1---|---------------- |------|
          G :|----1^2^1-------2-|----------------*|------|
          D :|----------3-0-----|----0-----0---0-*|0-----|
          A :|------------------|--3-----2------- |0-----|
          D :|0-0---------------|3-----2-----1--- |0-----|
          
          Verse
                  Play Many X           Last Time
          A :|*------------------------------*||-------------3-2-5-2-||
          D :|*0-0-10-12-12-0-0-0-10-12-12-12*||0-0-10-12-12-3-2-5-2-||
          
          Pre-Chorus (a couple times)
          
          A :|*5--6--5--6--5-6-*|
          D :|*5--6--5--6--5-6-*|
          
          Chorus
          D 😐 ------------------------------|-------------3-331-11 |
          A :|*------------------------------|-------------3-331-11*|
          D 😐 0-0-10-12-12-0-0-0-10-12-12-12|0-0-10-12-12-3-331-11 |
          
          |0------|
          |6------| Before Solo:
          |7------| Mess around with this chord.
          |7------|
          |5------|
          |-------|
          
          Solo: (I'm not sure of the whole thing) Use these riffs in different
          places: (Use lots of Wah)
          
          G :----------------------|----------------------|
          D :10---10---12-12-12-10-|--10---10-12-12-12-12-|
          
          E :----------------------|---------------------|
          B :13---13---13-12-10-13-|--13---13-13-12-10---|
          G :----------------------|---------------------|
          D :----------------------|---------------------|
          
          E :----------------------|----------------------|
          B :----------------------|----------------------|
          G :10---10------------10-|--10---10-------------|
          D :----------12-12-12----|----------12-12-12-12-|
          
          E :----------------------|----------------------|
          B :----------------------|----------------------|
          G :----------10-10-10----|----------10-10-10-10-|
          D :12---12------------12-|--12---12-------------|
          
          After the solo goto the other bits then:
          
          B :3-3-3-3-6-6-6-6-|9-9-9-9-12-12-12-12-|
          G :1-1-1-1-4-4-4-4-|7-7-7-7-10-10-10-10-|
          D :--*-*-*---*-*-*-|--*-*-*-----*--*--*-|
          
          B :15-15-15-15-15-15-15-15-|15-15-15-15-15-15-15-15-|
          G :13-13-13-13-13-13-13-13-|13-13-13-13-13-13-13-13-|
          D :----*--*--*-----*--*--*-|----*--*--*-----*--*--*-|
          
          *=sounds like reattack from wah pedel
          end with main verse riff 
Аккорд EАккорд BАккорд GАккорд DАккорд A

Godsmack — Get Up Get Out

 Band: Godsmack 
Song: Get Up, Get Out 
Tabed By: Jeff H (poo_poo_punk@hotmail.com)

Dropped D Tuning

Intro (play a few times)
G 😐 ----------------|----------------|
D :|*----------------|----------------|
A :|*----------------|----------------|
D 😐 0---------------|0-------3---2---|

G :|----------------|---------------- |
D :|----------------|----------------*|
A :|----------------|----------------*|
D :|0---------------|3-----2-----1--- |

End: Play just 2nd line a few times
the end with low D:|0-----|

Verse
        Play Many X           Last Time
G 😐 ---------------- ||--------------------||
D :|*----------------*||--------------------||
A :|*----355-----3555*||----355-------------||
D 😐 0-0----0-0-0---- ||0-0-----3-2-5-3-2-3-||

Pre-Chorus (a couple times)
G 😐 ----------------*|
D :|*----------------*|
A :|*----------------*|
D 😐 5--6--5--6--5-6- |

Chorus
G 😐 ------------------------------|--------------------- |
D :|*------------------------------|---------------------*|
A :|*------------------------------|---------------------*|
D 😐 0-0-10-12-12-0-0-0-10-12-12-12|0-0-10-12-12-3-331-11 |

G :|-------| 
D :|-------| Before Solo?
A :|5------| 
D :|-------|

Guitar Solo:  

Play many x under solo:
G 😐 ------4x-------- || --------4x------ ||
D :|*----------------*||*----355-----3555*||
A :|*----355-----3555*||*----------------*||
D 😐 0-0----0-0-0---- || 5-5----5-5-5---- ||

After the solo goto the other bits then:

G :1-1-1-1-4-4-4-4-|7-7-7-7-10-10-10-10-|
D :----------------|--------------------|
A :----------------|--------------------|
D :----------------|--------------------|

G :13-13-13-13-13-13-13-13-|13-13-13-13-13-13-13-13-|
D :------------------------|------------------------|
A :------------------------|------------------------|
D :------------------------|------------------------| 
Аккорд HАккорд DАккорд GАккорд A

Godsmack — Get Up Get Out

 name=mike gomes
band=godsmack
song=get up get out
inst_type=Bass
body=GODSMACK 
Get Up, Get Out 
Dropped D Tuning 
Intro (play a few times) 

G 😐 ----------------|----------------| 

D :|*----------------|----------------| 

A :|*----------------|----------------| 

D 😐 0---------------|0-------3---2---| 
  
  

G :|----------------|---------------- | 

D :|----------------|----------------*| 

A :|----------------|----------------*| 

D :|0---------------|3-----2-----1--- | 
  
  

End: Play just 2nd line a few times 

the end with low D:|0-----| 
  
  

Verse 

        Play Many X           Last Time 

G 😐 ---------------- ||--------------------|| 

D :|*----------------*||--------------------|| 

A :|*----355-----3555*||----355-------------|| 

D 😐 0-0----0-0-0---- ||0-0-----3-2-5-3-2-3-|| 
  
  

Pre-Chorus (a couple times) 

G 😐 ----------------*| 

D :|*----------------*| 

A :|*----------------*| 

D 😐 5--6--5--6--5-6- | 
  
  

Chorus 

G 😐 ------------------------------|--------------------- | 

D :|*------------------------------|---------------------*| 

A :|*------------------------------|---------------------*| 

D 😐 0-0-10-12-12-0-0-0-10-12-12-12|0-0-10-12-12-3-331-11 | 
  
  

G :|-------| 

D :|-------| Before Solo? 

A :|5------| 

D :|-------| 
  
  

Guitar Solo: 
  
  

Play many x under solo: 

G 😐 ------4x-------- || --------4x------ || 

D :|*----------------*||*----355-----3555*|| 

A :|*----355-----3555*||*----------------*|| 

D 😐 0-0----0-0-0---- || 5-5----5-5-5---- || 
  
  

After the solo goto the other bits then: 
  
  

G :1-1-1-1-4-4-4-4-|7-7-7-7-10-10-10-10-| 

D :----------------|--------------------| 

A :----------------|--------------------| 

D :----------------|--------------------| 
  
  

G :13-13-13-13-13-13-13-13-|13-13-13-13-13-13-13-13-| 

D :------------------------|------------------------| 

A :------------------------|------------------------| 

D :------------------------|------------------------| 
  
  

end with main verse riff 
 
Аккорд DАккорд GАккорд A