Портал для гитаристов
gtars.ru

Godsmack — Going Down

 Artist: Godsmack
Title: Going Down
Album: Mission Imposible II
Tabbed by: bradley
E-mail: bradley@mail.lv

  Drop D tuning
  
G|------------------| 
D|------------------|  
A|---------5-3-0----| 
D|--0--7-5-------3--| 

That's it! Repeat it all the way.
Really Easy n' Cool

SeeYaa!
 
Аккорд D

Godsmack — Going Down

 Band: Godsmack
Song: Going Down
Tabbed By: Daniel Luengas
E-Mail: daniel182colombia@hotmail.com

This song has a very cool bass, and I'm sure this 
Tab is 100% correct, so.... Enjoy....

Intro: 
G|-----------------------------------------|
D|-----------------------------------------|
A|-----------------------------------------| X12
E|-0-0-8-9-8-0-7-0-------------------------|

Verse:
G|-----------------------------------------|
D|-----------------------------------------|
A|-----------------------------------------| X14
E|-0-0-8-9-8-0-7-0-------------------------|

Yeah..yeah..yeah..yeah..
G|-----------------------------------------|
D|-----------------------------------------|
A|-----------------------------------------| X4
E|-0-0-8-9-8-0-7-0-------------------------|

Verse:
G|-----------------------------------------|
D|-----------------------------------------|
A|-----------------------------------------| X14
E|-0-0-8-9-8-0-7-0-------------------------|

Guitar Plays and then..

G|-----------------------------------------|
D|-----------------------------------------|
A|-----------------------------------------| X3
E|-0-0-8-9-8-0-7-0-------------------------|

Chorus:
G|-----------------------------------------|
D|-----------------------------------------|
A|-----------------------------------------|
E|-33333-55555-77777-55555-7-9-------------|

G|-----------------------------------------|
D|-----------------------------------------|
A|-----------------------------------------| X2
E|-0-0-8-9-8-0-7-0-------------------------|

G|-----------------------------------------|
D|-----------------------------------------|
A|-----------------------------------------|
E|-33333-55555-77777-55555-7-9-------------|

G|-----------------------------------------|
D|-----------------------------------------|
A|-----------------------------------------| X4
E|-0-0-8-9-8-0-7-0--0-0--------------------|

Verse:
G|-----------------------------------------|
D|-----------------------------------------|
A|-----------------------------------------| X12
E|-0-0-8-9-8-0-7-0-------------------------|

Chorus:
G|-----------------------------------------|
D|-----------------------------------------|
A|-----------------------------------------|
E|-33333-55555-77777-55555-----------------|

G|-----------------------------------------|
D|-----------------------------------------|
A|-----------------------------------------| X2
E|-0-0-8-9-8-0-7-0-------------------------|

Guitar Plays and then..

Part before bridge:
G|-----------------------------------------|
D|-----------------------------------------|
A|-----------------------------------------| X3
E|-0-0-8-9-8-0-7-0-------------------------|

G|-----------------------------------------|
D|-----------------------------------------|
A|-----------------------------------------| X1
E|-0-0-8-9-8-0-7-0--0-0--------------------|

Bridge:
G|-----------------------------------------|
D|-----------------------------------------|
A|-----------------------------------------| X3
E|-3333333-5555555-7777777-----------------|

After Bridge:
G|-----------------------------------------|
D|-----------------------------------------|
A|-----------------------------------------| X1
E|-0--0------------------------------------|

G|-----------------------------------------|
D|-----------------------------------------|
A|-----------------------------------------| X3
E|-0-0-8-9-8-0-7-0-------------------------|

Chorus:
G|-----------------------------------------|
D|-----------------------------------------|
A|-----------------------------------------| X3
E|-33333-55555-77777-55555-----------------|

G|-----------------------------------------|
D|-----------------------------------------|
A|-----------------------------------------| X3
E|-0-0-8-9-8-0-7-0-------------------------|

О.К that's it, it's a pretty easy song
Something wrong?  E-mail me!!!