Портал для гитаристов
gtars.ru

Godsmack — Greed

 this song is kinda hard to tab but here it is

tunign: DROP Db (Db,Ab,Db,Gb,Bb,Eb)  or C (C,G,C,F,A,D)

Intro and Verse:

1|---------------------------------------|
2|---------------------------------------|
3|---------------------------------------|
4|--2-222--------------------------------|
5|--2-222--5--2-222----5/7--2--222-5-----|
6|--0-000--3--0-000----3/5--0--000-3-----|
    . ...     . ...  palm muting? or open? could be a mixture of both i dont really know


Chorus:

1|--------------------------------|
2|--------------------------------|
3|--------------------------------|
4|--5--2--5--2--5--2--5--2--5/7---|  repeat 3 times then
5|--3--2--3--2--3--2--3--2--3/5---|
6|-----0-----0-----0-----0--------|

1|---------------------------------------|
2|---------------------------------------|
3|---------------------------------------|
4|--77777---9999--------7777777--99999---|
5|--55555---7777--------5555555--77777---|
6|---------------------------------------|


i think the pre solo goes like

1|------------------------------|
2|------------------------------|
3|-2----------------------------|
4|-0---------------6-6-6-6-3----|
5|-0---------------6-6-6-6-3----|
6|-0---------------6-6-6-6-3----|
  ****************
*** = phaser 


1|----------------|
2|----------------|
3|----------------|
4|-0-0-0-0--8-----|
5|-0-0-0-0--6-----|
6|-0-0-0-0--------|
           *
* = use wah   ~= vibroto  p= pull off  b= bend

Solo

1|---------------------------------------------------------|
2|---------------------------------------------------------|
3|-10~~~~10~~~10~~~~~10~~~~~------------10h12b14b14b14~~~~-|
4|--------------------------12---10--12--------------------|
5|---------------------------------------------------------|
6|---------------------------------------------------------|
w/ wah


1|-10----10----10----10----10---------------------------|
2|-13b15-13b15-13b15-13b15-13b15-10----10----10----9~~~-|
3|-------------------------------12b14-12b14-12b14------|
4|------------------------------------------------------|
5|------------------------------------------------------|
6|------------------------------------------------------|
w/ wah


1|-10-12-13-15-17b18r17p15p13h15-13-17-15-13h15p13p10~~~-|
2|-------------------------------------------------------|
3|-------------------------------------------------------|
4|-------------------------------------------------------|
5|-------------------------------------------------------|
6|-------------------------------------------------------|


  if theirs any comments or corrections ill be happy to taked them at
peson@hotmail.com.  well, anway have FUN AND ENJOY!!!! 
Аккорд DbАккорд EbАккорд CАккорд D

Godsmack — Greed

 Artist: Godsmack
Title: Greed
Album: Awake
Tab  : Felix Kiesewetter (TheMaster@ironmaiden.com)


BASS TAB (4-STRING BASS)

Tune E down to C

Verse                                            x3
G|----------------------------------------------|
D|----------------------------------------------|
A|----------------------------------------------|
C|-0--2-0-0-0--2-0-0-0-0--0-0-2-0-0-0--0--0-3-5-|

G|------------------------------------|
D|------------------------------------|
A|------------------------------------|
C|-2--3-2-2-2--3-2-2-2-2--2-2-3-2-2-2-|


Chorus
G|---------------------------------|
D|---------------------------------|
A|---------------------------------|
C|-0---12-10-12-10-10-10-10-10-8-7-|
                                      x2
G|-----------------------------------|
D|-----------------------------------|
A|-----------------------------------|
C|-0---12-10-12-10-10-10-10-10-10-15-|

G|----------------------------------|
D|----------------------------------|
A|----------------------------------|
C|-0h10---10--10--10-10-10-10-10-12-|


Verse2                                           x5
G|----------------------------------------------|
D|----------------------------------------------|
A|----------------------------------------------|
C|-0--2-0-0-0--2-0-0-0-0--0-0-2-0-0-0--0--0-3-5-|

G|------------------------------------|
D|------------------------------------|
A|------------------------------------|
C|-2--3-2-2-2--3-2-2-2-2--2-2-3-2-2-2-|


Interlude                        x3
G|------------------------------|
D|------------------------------|
A|------------------------------|
C|-
Аккорд EАккорд CАккорд G

Godsmack — Greed

 Godsmack
Greed

Intro And Verse:
D------------------------------------------------
A------------------------------------------------
F------------------------------------------------
C------------------------------------------------
G-0---3-0-0-0---3-000-0--0-0-3-0-0-0--0-0--5h6-6-
C-0---3-0-0-0---3-000-0--0-0-3-0-0-0--0-0--5h6-6-
pm..    ...       ...    ...   ... /
                                   Stop here when going into
                                   first verse and chorus

Chorus
1
D-----------------------
A-----------------------
F-----------------------
C-0--7---7---5--8-8-8-8-
G-0--5-0-5-0-3--6-6-6-6-
C-0----0---0------------
3 times

2
D---------------
A---------------
F---------------
C-5--5--8-8-8-8-
G-3--3--6-6-6-6-
C---------------

Pre-solo
1
D---------------------------
A---------------------------
F-2-------------------------
C-0---------------6-6-6-6-3-
G-0---------------6-6-6-6-3-
C-0---------------6-6-6-6-3-
  ****************
*** = phaser or flanger(I prefer phaser), and let ring

2
D------------
A------------
F------------
C-0-0-0-0--8-
G-0-0-0-0--6-
C-0-0-0-0----
           *
* = use wah

Solo
1
D---------------------------------------------------------
A---------------------------------------------------------
F-10~~~~10~~~10~~~~~10~~~~~------------10h12b14b14b14~~~~-
C--------------------------12---10--12--------------------
G---------------------------------------------------------
C---------------------------------------------------------
w/ wah

2
D-10----10----10----10----10---------------------------
A-13b15-13b15-13b15-13b15-13b15-10----10----10----9~~~-
F-------------------------------12b14-12b14-12b14------
C------------------------------------------------------
G------------------------------------------------------
C------------------------------------------------------
w/ wah

3
D-10-12-13-15-17b18r17p15p13h15-13-17-15-13h15p13p10~~~-
A-------------------------------------------------------
F-------------------------------------------------------
C-------------------------------------------------------
G-------------------------------------------------------
C-------------------------------------------------------
w/ wah

Sorry about the solo, it'll sound descent but its
not perfect. 
Аккорд D------------Аккорд A------------Аккорд F------------