Портал для гитаристов
gtars.ru

Godsmack — I Fucking Hate You

 #----------------------------------PLEASE NOTE---------------------------------#
#This file is the author's own work and represents their interpretation of the #
#song. You may only use this file for private study, scholarship, or research. #
#------------------------------------------------------------------------------#

Title: 'I Fucking Hate You'
Artist: Godsmack
Tabbed By: StonedRocker
 My excuse if this tab sucks is that I did it in 
 5 minutes from memory at 1 in the morning. Hopefully 
 it wont be that bad :>
 

Standard Tuning (E A D G B E) - 'I Fucking Hate You'


  
  Intro/Verse 1
e|--------------------------------|
B|--------------------------------|
G|--------------------------------|
D|-9-9----------------------------|
A|-9-9-799799799797---------------|
E|-7-7----------------------------|
         palm mute 

  Verse 2
e|-----------------------|----------------------------------------|
B|-----------------------|----------------------------------------|
G|-----------------------|----------------------------------------|
D|-9-9-------------------|---------9-9----------------------------|
A|-9-9-555/777/999770---|---------9-9-566566566565---------------|
E|-7-7-------------------|---------7-7----------------------------|
         x3                        (play on fourth time)   

  Chorus
e|------------------|
B|------------------|
G|---------4---5----|
D|-9---3---4---5----|
A|-9---3---2---3----|
E|-7---1------------|
  hold each chord 
Аккорд EАккорд AАккорд DАккорд GАккорд B

Godsmack — I Fucking Hate You

 this is a sweet song
the tunning is cgcfad

intro
---------------------------------------------------------------
---------------------------------------------------------------
---------------------------------------------------------------
-0-0-------------------------------------------------x4--------
-0-0-----------------------------------------------------------
-0-0--17/18-18-18-18-17/18-18-18-18-17/18-18-18-18-18----------

---------------------------------------------------------------
---------------------------------------------------------------
---------------------------------------------------------------
-0-0--3-3-3---5-5-5---6-6-6---5-5-5---3-3-3--------------------
-0-0--3-3-3---5-5-5---6-6-6---5-5-5---3-3-3--------------------
-0-0--3-3-3---5-5-5---6-6-6---5-5-5---3-3-3--------------------


---------------------------------------------------------------
---------------------------------------------------------------
----------------------------------------------------x4---------
-0-0-----------------------------------------------------------
-0-0-----------------------------------------------------------
-0-0--17/18-18-18-18--17/18-18-18-18--17/18-18-18-18-----------


---------------------------------------------------------------
-3-----3-------------------------------------------------------
-2-----2-------------------------------------------------------
-0--6--0---5-6-5-6-5-6-5-6-5--x2-------------------------------
-0--6--0---5-6-5-6-5-6-5-6-5-----------------------------------
-0--6--0---5-6-5-6-5-6-5-6-5-----------------------------------

------------------------------------------------------------------
------------------------------------------------------------------
------------------------------------------------------------------
-0-0--3-3-3--5-5-5--6-6-6--5-5-5--0-0--3-3-3--5-5-5--6-6-6--5-5-5-
-0-0--3-3-3--5-5-5--6-6-6--5-5-5--0-0--3-3-3--5-5-5--6-6-6--5-5-5-
-0-0--3-3-3--5-5-5--6-6-6--5-5-5--0-0--3-3-3--5-5-5--6-6-6--5-5-5-          


thats all i have it is pretty acurate u have to listen to the song
to get the really cool part of it 

Godsmack — I Fucking Hate You

 Tuning is Drop C: C,G,C,F,A,D

Intro/Verse

D------------------------------------------
A------------------------------------------
F------------------------------------------
C------------------------------------------
G-0-0--------------------------------------
C-0-0----18-0-18-0-18-0-18-0-18-0----------

Pre-Chorus:

D------------------------------------------
A------------------------------------------
F--2-2-2-2-----8-8-8-8---------------------
C--2-2-2-2-----8-8-8-8---------------------
G--0-0-0-0-----6-6-6-6---------------------
C--0-0-0-0-----6-6-6-6---------------------

D------------------------------------------
A------------------------------------------
F--2-2-2-2---------------------------------
C--2-2-2-2---------------------------------
G--0-0-0-0-----0-6-0-6-0-6-0-6-6-6-6-------
C--0-0-0-0-----0-6-0-6-0-6-0-6-6-6-6-------


Chorus:

D------------------------------------------
A------------------------------------------
F------------------------------------------
C-------0-3-5/6-5--------------------------
G-0-0---0-3-5/6-5--------------------------
C-0-0---0-3-5/6-5--------------------------

This tab is right, just listen to it for strumming patterns..pretty easy.
GODSMACK RULES!!! 
Аккорд D

Godsmack — I Fucking Hate You

 Probably all wrong...
(My first tab cut me sum slack)

My bass is Broke so this is all by ear and memory, so
if its correct enjoy, If not i dont care...I tried




Intro
|--------------|----------------|
|--------------|----------------|
|--------------|----------------|
|-00-00-000-00-|333-555-666-555-|


Verse 1
|---------------------|
|---------------------|
|---------------------|
|-00--333-555-666-555-|



Verse 2
|-------------------------|----------------|
|-------------------------|----------------|
|-------------------------|----------------|
|-00-00-00-00-00-00-00-00-|333-555-666-555-|


Chorus  
|---------|-------------|
|---------|-------------|
|---------|-------------|
|-0-3-0---|-33-55-33-55-|


Outro
|---------------------|
|---------------------|
|---------------------|
|-00--333-555-666-555-|

Solidhollow@Hehe.com