Портал для гитаристов
gtars.ru

Godsmack — I Stand Alone

 Godsmack - I Stand Alone
Tuning - C-G-C-F-A-D
3-12-02

tabbed by Emilio (emiliograveran@hotmail.com)

this is the complete order of the rhythm part of the song. i couldn't tab out the second 
guitar part cause i'm not that good so enjoy this...it should be enough to play with your
band if you choose to do so...the second guitar part is noticeable but not a huge part in 
it...

Intro
|-------------------------------------|
|-------------------------------------|
|-------------------------------------|
|-------------------------------------| x7
|---------12-12-----13-13-----13-13---|
|---0-0-0-------0-0-------0-0---------|

|-------------------------------------|
|-------------------------------------|
|-------------------------------------|
|-------------------------------------| x1
|---------12-12-----13-13-----13----|
|---0-0-0-------0-0-------0-0---------|


Verse 1
|---------------------------------------------------------------------------------------|
|---------------------------------------------------------------------------------------|
|---------------------------------------------------------------------------------------|
|-0-0-xx-0-0-xx-5-5-5--0-0-xx-0-0-xx-5p3-6-6--0-0-xx-0-0-xx-5-5-5--0-0-xx-0-0-xx--xx-x--|
|-0-0-xx-0-0-xx-5-5-5--0-0-xx-0-0-xx-5p3-6-6--0-0-xx-0-0-xx-5-5-5--0-0-xx-0-0-xx--xx-x--|
|-0-0-xx-0-0-xx-5-5-5--0-0-xx-0-0-xx-5p3-6-6--0-0-xx-0-0-xx-5-5-5--0-0-xx-0-0-xx--xx-x--|

|------------------------------------------------------------------------|
|------------------------------------------------------------------------|
|------------------------------------------------------------------------|
|-0-0-xx-0-0-xx-5-5-5--0-0-xx-0-0-xx-5p3-6-6--0-0-xx-0-0-xx-5-5-5--5~~---|
|-0-0-xx-0-0-xx-5-5-5--0-0-xx-0-0-xx-5p3-6-6--0-0-xx-0-0-xx-5-5-5--5~~---|
|-0-0-xx-0-0-xx-5-5-5--0-0-xx-0-0-xx-5p3-6-6--0-0-xx-0-0-xx-5-5-5--5~~---|

Chorus
|-------------------------------------|
|-------------------------------------|
|-------------------------------------|
|-------------------------------------| x3
|---------12-12-----13-13-----13-13---|
|---0-0-0-------0-0-------0-0---------|

|-------------------------------------|
|-------------------------------------|
|-------------------------------------|
|-------------------------------------| x1
|---------12-12-----13-13-----13//----|
|---0-0-0-------0-0-------0-0---------|


Verse 2
|---------------------------------------------------------------------------------------|
|---------------------------------------------------------------------------------------|
|---------------------------------------------------------------------------------------|
|-0-0-xx-0-0-xx-5-5-5--0-0-xx-0-0-xx-5p3-6-6--0-0-xx-0-0-xx-5-5-5--0-0-xx-0-0-xx--xx-x--|
|-0-0-xx-0-0-xx-5-5-5--0-0-xx-0-0-xx-5p3-6-6--0-0-xx-0-0-xx-5-5-5--0-0-xx-0-0-xx--xx-x--|
|-0-0-xx-0-0-xx-5-5-5--0-0-xx-0-0-xx-5p3-6-6--0-0-xx-0-0-xx-5-5-5--0-0-xx-0-0-xx--xx-x--|

|---------------------------------------------------------------------------------------|
|---------------------------------------------------------------------------------------|
|---------------------------------------------------------------------------------------|
|-0-0-xx-0-0-xx-5-5-5--0-0-xx-0-0-xx-5p3-6-6--0-0-xx-0-0-xx-5-5-5--0-0-xx-0-0-xx-5p3-6-6|
|-0-0-xx-0-0-xx-5-5-5--0-0-xx-0-0-xx-5p3-6-6--0-0-xx-0-0-xx-5-5-5--0-0-xx-0-0-xx-5p3-6-6|
|-0-0-xx-0-0-xx-5-5-5--0-0-xx-0-0-xx-5p3-6-6--0-0-xx-0-0-xx-5-5-5--0-0-xx-0-0-xx-5p3-6-6|

Pre-Chorus
|-----------------------------------------|
|-----------------------------------------|
|----------------------------10-----------|
|---5--5--5--5--5-5/8--8--8--10--0--1-1---|
|---5--5--5--5--5-5/8--8--8--8---0--1-1---|
|---5--5--5--5--5-5/8--8--8--8---0--1-1---|

Chorus
|-------------------------------------|
|-------------------------------------|
|-------------------------------------|
|-------------------------------------| x1
|---------12-12-----13-13-----13-13---|
|---0-0-0-------0-0-------0-0---------|

|-------------------------------------|
|-------------------------------------|
|-------------------------------------|
|-------------------------------------| x1
|---------12-12-----13-13-----13//----|
|---0-0-0-------0-0-------0-0---------|

|----------------------------------------|
|----------------------------------------|
|----------------------------------------|
|---5--5--5--5--5-5/8--8--8--8--8--8-8---|
|---5--5--5--5--5-5/8--8--8--8--8--8-8---|
|---5--5--5--5--5-5/8--8--8--8--8--8-8---|

|-------------------------------------|
|-------------------------------------|
|-------------------------------------|
|-------------------------------------| x1
|---------12-12-----13-13-----13-13---|
|---0-0-0-------0-0-------0-0---------|

|-------------------------------------|
|-------------------------------------|
|-------------------------------------|
|-------------------------------------| x1
|---------12-12-----13-13-----13//----|
|---0-0-0-------0-0-------0-0---------|

|---------------------------------------|
|---------------------------------------|
|---------------------------------------|
|---5--5--5--5--5-5/8--8--8--8--8--1-1--|
|---5--5--5--5--5-5/8--8--8--8--8--1-1--|
|---5--5--5--5--5-5/8--8--8--8--8--1-1--|

|-------------------------------------|
|-------------------------------------|
|-------------------------------------|
|----------0--0------0--0------0--0---| x3
|---------12-12-----13-13-----13-13---|
|---0-0-0-------0-0-------0-0---------|

|------------------------------------------|
|------------------------------------------|
|------------------------------------------|
|----------0--0------0--0------0--0---0~~--|
|---------12-12-----13-13-----13-13---0~~--|
|---0-0-0-------0-0-------0-0---------0~~--|

Bridge
|------------------------------------------------|
|------------------------------------------------|
|------------------------------------------------|
|-------5-----5--2/5-5-5--2/3-3-3--0----0-----0--| x1
|-----3-----3----2/5-5-5--2/3-3-3--0--0-----0----|
|---3-----3------2/5-5-5--2/3-3-3--0------0------|
               

|-----------------------------------------------|
|-----------------------------------------------|
|-----------------------------------------------|
|-------5-----5--2/5-5-5--2/3-3-3------0-----0--| x1
|-----3-----3----2/5-5-5--2/3-3-3----0-----0----|
|---3-----3------2/5-5-5--2/3-3-3--0-----0------|
                 (2nd gtr - quiet)

|------------------------------------------------|
|------------------------------------------------|
|------------------------------------------------|
|-------5-----5--2/5-5-5--2/3-3-3--0----0-----0--| x1
|-----3-----3----2/5-5-5--2/3-3-3--0--0-----0----|
|---3-----3------2/5-5-5--2/3-3-3--0------0------|
            

|-----------------------------------|
|-----------------------------------|
|-----------------------------------|
|-------5-----5--2/5-5-5--2/3-3-3---| x1 then next part
|-----3-----3----2/5-5-5--2/3-3-3---|
|---3-----3------2/5-5-5--2/3-3-3---|

|------------------------------------------------------------------------|
|------------------------------------------------------------------------|
|------------------------------------------------------------------------|
|-0-0-xx-0-0-xx-5-5-5--0-0-xx-0-0-xx-5p3-6-6--0-0-xx-0-0-xx-5-5-5--5~~---|
|-0-0-xx-0-0-xx-5-5-5--0-0-xx-0-0-xx-5p3-6-6--0-0-xx-0-0-xx-5-5-5--5~~---|
|-0-0-xx-0-0-xx-5-5-5--0-0-xx-0-0-xx-5p3-6-6--0-0-xx-0-0-xx-5-5-5--5~~---|

Chorus
|-------------------------------------|
|-------------------------------------|
|-------------------------------------|
|-------------------------------------| x3
|---------12-12-----13-13-----13-13---|
|---0-0-0-------0-0-------0-0---------|

|-------------------------------------|
|-------------------------------------|
|-------------------------------------|
|-------------------------------------| x1
|---------12-12-----13-13-----13//----|
|---0-0-0-------0-0-------0-0---------|

|----------------------------------------|
|----------------------------------------|
|----------------------------------------|
|---5--5--5--5--5-5/8--8--8--8--8--8-8---|
|---5--5--5--5--5-5/8--8--8--8--8--8-8---|
|---5--5--5--5--5-5/8--8--8--8--8--8-8---|

|-------------------------------------|
|-------------------------------------|
|-------------------------------------|
|-------------------------------------| x1
|---------12-12-----13-13-----13-13---|
|---0-0-0-------0-0-------0-0---------|

|-------------------------------------|
|-------------------------------------|
|-------------------------------------|
|-------------------------------------| x1
|---------12-12-----13-13-----13//----|
|---0-0-0-------0-0-------0-0---------|

|---------------------------------------|
|---------------------------------------|
|---------------------------------------|
|---5--5--5--5--5-5/8--8--8--8--8--1-1--|
|---5--5--5--5--5-5/8--8--8--8--8--1-1--|
|---5--5--5--5--5-5/8--8--8--8--8--1-1--|

Outro
|-------------------------------------|
|-------------------------------------|
|-------------------------------------|
|----------0--0------0--0------0--0---| x8
|---------12-12-----13-13-----13-13---|
|---0-0-0-------0-0-------0-0---------| 
Аккорд A-D

Godsmack — I Stand Alone

 Intro
|-------------------------------------|
|-------------------------------------|
|-------------------------------------|
|-------------------------------------| x7
|---------12-12-----13-13-----13-13---|
|---0-0-0-------0-0-------0-0---------|

|-------------------------------------|
|-------------------------------------|
|-------------------------------------|
|-------------------------------------| x1
|---------12-12-----13-13-----13----|
|---0-0-0-------0-0-------0-0-13----|


Verse #1
|--------------------------------------------------------------------------------------|
|--------------------------------------------------------------------------------------|
|--------------------------------------------------------------------------------------|
|-0-0-xx-0-0-xx-6-6-6--0-0-xx-0-0-xx-5p3-3-3--0-0-xx-0-0-xx-6-6-6--0-0-xx-0-0-xx--xx---|
|-0-0-xx-0-0-xx-6-6-6--0-0-xx-0-0-xx-5p3-3-3--0-0-xx-0-0-xx-6-6-6--0-0-xx-0-0-xx--xx---|
|-0-0-xx-0-0-xx-6-6-6--0-0-xx-0-0-xx-5p3-3-3--0-0-xx-0-0-xx-6-6-6--0-0-xx-0-0-xx--xx---|

|-------------------------------------------------------------------------|
|-------------------------------------------------------------------------|
|-------------------------------------------------------------------------|
|-0-0-xx-0-0-xx-6-6-6--0-0-xx-0-0-xx-5p3-3-3--0-0-xx-0-0-xx-6-6-6--6~~~---| x1
|-0-0-xx-0-0-xx-6-6-6--0-0-xx-0-0-xx-5p3-3-3--0-0-xx-0-0-xx-6-6-6--6~~~---|
|-0-0-xx-0-0-xx-6-6-6--0-0-xx-0-0-xx-5p3-3-3--0-0-xx-0-0-xx-6-6-6--6~~~---|

Chorus
|-------------------------------------|
|-------------------------------------|
|-------------------------------------|
|-------------------------------------| x3
|---------12-12-----13-13-----13-13---|
|---0-0-0-------0-0-------0-0---------|

|-------------------------------------|
|-------------------------------------|
|-------------------------------------|
|-------------------------------------| x1
|---------12-12-----13-13-----13----|
|---0-0-0-------0-0-------0-0-13----|


Verse #2
|--------------------------------------------------------------------------------------|
|--------------------------------------------------------------------------------------|
|--------------------------------------------------------------------------------------|
|-0-0-xx-0-0-xx-6-6-6--0-0-xx-0-0-xx-5p3-3-3--0-0-xx-0-0-xx-6-6-6--0-0-xx-0-0-xx--xx---|
|-0-0-xx-0-0-xx-6-6-6--0-0-xx-0-0-xx-5p3-3-3--0-0-xx-0-0-xx-6-6-6--0-0-xx-0-0-xx--xx---|
|-0-0-xx-0-0-xx-6-6-6--0-0-xx-0-0-xx-5p3-3-3--0-0-xx-0-0-xx-6-6-6--0-0-xx-0-0-xx--xx---|

|---------------------------------------------------------------------------------------|
|---------------------------------------------------------------------------------------|
|---------------------------------------------------------------------------------------|
|-0-0-xx-0-0-xx-6-6-6--0-0-xx-0-0-xx-5p3-3-3--0-0-xx-0-0-xx-6-6-6--0-0-xx-0-0-xx-5p3-3-3| x1
|-0-0-xx-0-0-xx-6-6-6--0-0-xx-0-0-xx-5p3-3-3--0-0-xx-0-0-xx-6-6-6--0-0-xx-0-0-xx-5p3-3-3|
|-0-0-xx-0-0-xx-6-6-6--0-0-xx-0-0-xx-5p3-3-3--0-0-xx-0-0-xx-6-6-6--0-0-xx-0-0-xx-5p3-3-3|


A|--8------10--------
E|--5-------8--------


Bridge:
e-------------------------|-----------------------------
B-------------------------|-----------------------------
G-------------------------|-----------------------------
D------2-----------7--7---|-----------------------------
A----2----2------5----5---|---2-2------2-2------2-------
E--0------0---3-------3---|---0-0--0-0-0-0--0-0-0--0-0-- 

Godsmack — I Stand Alone

 Godsmack - I Stand Alone
Tuning - C-G-C-F-A-D
3-12-02

tabbed by Emilio (emiliograveran@hotmail.com)

this is the complete order of the rhythm part of the song. i couldn't tab out the second 
guitar part cause i'm not that good so enjoy this...it should be enough to play with your 
band if you choose to do so...the second guitar part is noticeable but not a huge part in 
it...

Intro
|-------------------------------------|
|-------------------------------------|
|-------------------------------------|
|-------------------------------------| x7
|---------12-12-----13-13-----13-13---|
|---0-0-0-------0-0-------0-0---------|

|-------------------------------------|
|-------------------------------------|
|-------------------------------------|
|-------------------------------------| x1
|---------12-12-----13-13-----13----|
|---0-0-0-------0-0-------0-0---------|


Verse 1
|---------------------------------------------------------------------------------------|
|---------------------------------------------------------------------------------------|
|---------------------------------------------------------------------------------------|
|-0-0-xx-0-0-xx-6-6-6--0-0-xx-0-0-xx-63/5-5--0-0-xx-0-0-xx-6-6-6--0-0-xx-0-0-xx--xx-x--|
|-0-0-xx-0-0-xx-6-6-6--0-0-xx-0-0-xx-63/5-5--0-0-xx-0-0-xx-6-6-6--0-0-xx-0-0-xx--xx-x--|
|-0-0-xx-0-0-xx-6-6-6--0-0-xx-0-0-xx-63/5-5--0-0-xx-0-0-xx-6-6-6--0-0-xx-0-0-xx--xx-x--|

|------------------------------------------------------------------------|
|------------------------------------------------------------------------|
|------------------------------------------------------------------------|
|-0-0-xx-0-0-xx-6-6-6--0-0-xx-0-0-xx-63/5-5--0-0-xx-0-0-xx-6-6-6--6~~---|
|-0-0-xx-0-0-xx-6-6-6--0-0-xx-0-0-xx-63/5-5--0-0-xx-0-0-xx-6-6-6--6~~---|
|-0-0-xx-0-0-xx-6-6-6--0-0-xx-0-0-xx-63/5-5--0-0-xx-0-0-xx-6-6-6--6~~---|

Chorus
|-------------------------------------|
|-------------------------------------|
|-------------------------------------|
|-------------------------------------| x3
|---------12-12-----13-13-----13-13---|
|---0-0-0-------0-0-------0-0---------|

|-------------------------------------|
|-------------------------------------|
|-------------------------------------|
|-------------------------------------| x1
|---------12-12-----13-13-----13//----|
|---0-0-0-------0-0-------0-0---------|


Verse 2
|---------------------------------------------------------------------------------------|
|---------------------------------------------------------------------------------------|
|---------------------------------------------------------------------------------------|
|-0-0-xx-0-0-xx-6-6-6--0-0-xx-0-0-xx-63/5-5--0-0-xx-0-0-xx-6-6-6--0-0-xx-0-0-xx--xx-x--|
|-0-0-xx-0-0-xx-6-6-6--0-0-xx-0-0-xx-63/5-5--0-0-xx-0-0-xx-6-6-6--0-0-xx-0-0-xx--xx-x--|
|-0-0-xx-0-0-xx-6-6-6--0-0-xx-0-0-xx-63/5-5--0-0-xx-0-0-xx-6-6-6--0-0-xx-0-0-xx--xx-x--|

|---------------------------------------------------------------------------------------|
|---------------------------------------------------------------------------------------|
|---------------------------------------------------------------------------------------|
|-0-0-xx-0-0-xx-6-6-6--0-0-xx-0-0-xx-63/5-5--0-0-xx-0-0-xx-6-6-6--0-0-xx-0-0-xx-63/5-5|
|-0-0-xx-0-0-xx-6-6-6--0-0-xx-0-0-xx-63/5-5--0-0-xx-0-0-xx-6-6-6--0-0-xx-0-0-xx-63/5-5|
|-0-0-xx-0-0-xx-6-6-6--0-0-xx-0-0-xx-63/5-5--0-0-xx-0-0-xx-6-6-6--0-0-xx-0-0-xx-63/5-5|

Pre-Chorus
|-----------------------------------------|
|-----------------------------------------|
|----------------------------10-----------|
|---5--5--5--5--5-5/8--8--8--10--0--1-1---|
|---5--5--5--5--5-5/8--8--8--8---0--1-1---|
|---5--5--5--5--5-5/8--8--8--8---0--1-1---|

Chorus
|-------------------------------------|
|-------------------------------------|
|-------------------------------------|
|-------------------------------------| x1
|---------12-12-----13-13-----13-13---|
|---0-0-0-------0-0-------0-0---------|

|-------------------------------------|
|-------------------------------------|
|-------------------------------------|
|-------------------------------------| x1
|---------12-12-----13-13-----13//----|
|---0-0-0-------0-0-------0-0---------|

|----------------------------------------|
|----------------------------------------|
|----------------------------------------|
|---5--5--5--5--5-5/8--8--8--8--8--8-8---|
|---5--5--5--5--5-5/8--8--8--8--8--8-8---|
|---5--5--5--5--5-5/8--8--8--8--8--8-8---|

|-------------------------------------|
|-------------------------------------|
|-------------------------------------|
|-------------------------------------| x1
|---------12-12-----13-13-----13-13---|
|---0-0-0-------0-0-------0-0---------|

|-------------------------------------|
|-------------------------------------|
|-------------------------------------|
|-------------------------------------| x1
|---------12-12-----13-13-----13//----|
|---0-0-0-------0-0-------0-0---------|

|---------------------------------------|
|---------------------------------------|
|---------------------------------------|
|---5--5--5--5--5-5/8--8--8--8--8--1-1--|
|---5--5--5--5--5-5/8--8--8--8--8--1-1--|
|---5--5--5--5--5-5/8--8--8--8--8--1-1--|

|-------------------------------------|
|-------------------------------------|
|-------------------------------------|
|----------0--0------0--0------0--0---| x3
|---------12-12-----13-13-----13-13---|
|---0-0-0-------0-0-------0-0---------|

|------------------------------------------|
|------------------------------------------|
|------------------------------------------|
|----------0--0------0--0------0--0---0~~--|
|---------12-12-----13-13-----13-13---0~~--|
|---0-0-0-------0-0-------0-0---------0~~--|

Bridge
|------------------------------------------------|
|------------------------------------------------|
|------------------------------------------------|
|-------5-----5--2/5-5-5--2/3-3-3--0----0-----0--| x1
|-----3-----3----2/5-5-5--2/3-3-3--0--0-----0----|
|---3-----3------2/5-5-5--2/3-3-3--0------0------|
               

|-----------------------------------------------|
|-----------------------------------------------|
|-----------------------------------------------|
|-------5-----5--2/5-5-5--2/3-3-3------0-----0--| x1
|-----3-----3----2/5-5-5--2/3-3-3----0-----0----|
|---3-----3------2/5-5-5--2/3-3-3--0-----0------|
                 (2nd gtr - quiet)

|------------------------------------------------|
|------------------------------------------------|
|------------------------------------------------|
|-------5-----5--2/5-5-5--2/3-3-3--0----0-----0--| x1
|-----3-----3----2/5-5-5--2/3-3-3--0--0-----0----|
|---3-----3------2/5-5-5--2/3-3-3--0------0------|
            

|-----------------------------------|
|-----------------------------------|
|-----------------------------------|
|-------5-----5--2/5-5-5--2/3-3-3---| x1 then next part
|-----3-----3----2/5-5-5--2/3-3-3---|
|---3-----3------2/5-5-5--2/3-3-3---|

|------------------------------------------------------------------------|
|------------------------------------------------------------------------|
|------------------------------------------------------------------------|
|-0-0-xx-0-0-xx-6-6-6--0-0-xx-0-0-xx-63/5-5--0-0-xx-0-0-xx-6-6-6--6~~---|
|-0-0-xx-0-0-xx-6-6-6--0-0-xx-0-0-xx-63/5-5--0-0-xx-0-0-xx-6-6-6--6~~---|
|-0-0-xx-0-0-xx-6-6-6--0-0-xx-0-0-xx-63/5-5--0-0-xx-0-0-xx-6-6-6--6~~---|

Chorus
|-------------------------------------|
|-------------------------------------|
|-------------------------------------|
|-------------------------------------| x3
|---------12-12-----13-13-----13-13---|
|---0-0-0-------0-0-------0-0---------|

|-------------------------------------|
|-------------------------------------|
|-------------------------------------|
|-------------------------------------| x1
|---------12-12-----13-13-----13//----|
|---0-0-0-------0-0-------0-0---------|

|----------------------------------------|
|----------------------------------------|
|----------------------------------------|
|---5--5--5--5--5-5/8--8--8--8--8--8-8---|
|---5--5--5--5--5-5/8--8--8--8--8--8-8---|
|---5--5--5--5--5-5/8--8--8--8--8--8-8---|

|-------------------------------------|
|-------------------------------------|
|-------------------------------------|
|-------------------------------------| x1
|---------12-12-----13-13-----13-13---|
|---0-0-0-------0-0-------0-0---------|

|-------------------------------------|
|-------------------------------------|
|-------------------------------------|
|-------------------------------------| x1
|---------12-12-----13-13-----13//----|
|---0-0-0-------0-0-------0-0---------|

|---------------------------------------|
|---------------------------------------|
|---------------------------------------|
|---5--5--5--5--5-5/8--8--8--8--8--1-1--|
|---5--5--5--5--5-5/8--8--8--8--8--1-1--|
|---5--5--5--5--5-5/8--8--8--8--8--1-1--|

or

|-------------------------------------|
|-------------------------------------|
|-------------------------------------|
|----------0--0------0--0------0--0---| x4
|---------12-12-----13-13-----13-13---|
|---0-0-0-------0-0-------0-0---------|

|-------------------------------------|
|-------------------------------------|
|-------------------------------------|
|---0-0-0-7-7--0-0-8-8--0-0-8-8-------| x4
|---0-0-0-7-7--0-0-8-8--0-0-8-8-------|
|---0-0-0-7-7--0-0-8-8--0-0-8-8-------| 
Аккорд A-D

Godsmack — I Stand Alone

 This is one of Godsmack's greatest.  It's official tuning is Drop C.
I'm putting it in Drop D because I am extremely lazy.

I Stand Alone
As performed on The Scorpion King Soundtrack/Faceless
Words and music by Sully

Drop D tuning
h       hammer on
p       pull off
~       vibrating
PM      palm muting
x       muffled strings
~*~*~   pick scrape


Intro/Chorus (w/ distortion, x8 as Intro, x4 as Chorus)
e[--------------------------------------------------
B[--------------------------------------------------
G[--------------------------------------------------
D[-------5-5--------6-6-----6-----------------------
A[-3-3-3------3-3-3-----3-3-------------------------
D[--------------------------------------------------

Verse (w/ distortion, x2)
e[---------------------------------------------------
B[---------------------------------------------------
G[---------------------------------------------------
D[-----------------4------------------4p1h3----------
A[-3--3-3--3--3-3--4--3--3-3--3--3-3--4p1h3----------
D[-5--5-5--5--5-5--4--5--5-5--5--5-5--4p1h3----------
      PM..    PM..       PM..    PM..         
                                        End on  (Let ring)
e[-------------------------------------]--------------
B[-------------------------------------]--------------
G[-------------------------------------]--------------
D[-----------------4-------------------]--------------
A[-3--3-3--3--3-3--4--3--3-3--3--3-3---]-4------------
D[-5--5-5--5--5-5--4--5--5-5--5--5-5---]-6------------
      PM..    PM..       PM..    PM..

Chorus

Verse

Interlude
e[--------------------------------------------------
B[--------------------------------------------------
G[--------------------------------------------------
D[-3-----------6------------------------------------
A[-3-----------6------------------------------------
D[-3-----------6------------------------------------

Chorus (Play riff twice, then add Interlude, then repeat)

Bridge (Clean, x5)        2nd time         5th time (w/ distortion)
e[-----------------------]----------------[-----------
B[-----------------------]----------------[-----------
G[-----------------------]----------------[-----------
D[-------------3-----3---]----------------[-----------
A[-5---------1-----1-----]-~*~*~*~*~*~----[----3------
D[-3-------1-----1-------]-~*~*~*~*~*~----[----5------

SOLO THING
   x12       Slide down, x8   Slide back up, x12   End on
e[----------]---------------[--------------------]---------------
B[----------]---------------[--------------------]---------------
G[----5-----]------3--------[----5---------------]----6~~~~~-----
D[----x-----]------x--------[----x---------------]----x----------
A[----3-----]------1--------[----3---------------]----4~~~~~-----
D[----------]---------------[--------------------]---------------

Chorus (Play riff 4 times, then add interlude.  Then play the Chorus riff twice,
and add the interlude again.  Play the Chorus riff an additional 8 times)

And that's it.

Dig it?

Cool.

Song Structure
Intro
Verse
Chorus
Verse
Interlude
Chorus 
Interlude
Chorus
Bridge
SOLO THING
Chorus
Interlude
Chorus
Interlude
Chorus

Note: This was Tommy's last studio work with Godsmack.
Let's all hope he's found something that makes him happy. 
Аккорд CАккорд D

Godsmack — I Stand Alone

 Title: I Stand Alone
Artist: Godsmack
Album: Faceless / Scorpion King soundtrack
Instrument: 6 String Guitar
Tabbed by: Gibson666 (ndclgoose33@aol.com)

Tuning: 1 Step Down ( C G C F A D)
Heavy Distortion (entire song) and wha (bridge only)

Intro
D|-------------------------------------||8X
A|-------------------------------------||
F|-------------------------------------||
C|-------------------------------------||
G|-------------------------------------||
C|0-0-0-19-19--0-0-0-20-20--0-0-20-20--||

Verse
D|---------------------------------||4X
A|---------------------------------||
F|---------------------------------||
C|-0---0-00--0--00---6---0--00--0-3||
G|-0---0-00--0--00---6---0--00--0-3||
C|-0---0-00--0--00---6---0--00--0-3||
   *   * **  *  **       *  **  * *

Verse cont.
D|-----------------||1X
A|-----------------||
F|-----------------||
C|-0--0--0-000--5--||
G|-0--0--0-000--5--||
C|-0--0--0-000--5--||
   *  *  * ***  *

Pre Chorus
D|----------------------------||1X
A|----------------------------||
F|----------------------------||
C|3------5---------6----------||
G|3------5---------6----------||
C|3------5---------6----------||

Chorus
D|-------------------------------------||2X
A|-------------------------------------||
F|-------------------------------------||
C|-------------------------------------||
G|-------------------------------------||
C|0-0-0-19-19--0-0-0-20-20--0-0-20-20--||

 Verse
D|---------------------------------||4X
A|---------------------------------||
F|---------------------------------||
C|-0---0-00--0--00---6---0--00--0-3||
G|-0---0-00--0--00---6---0--00--0-3||
C|-0---0-00--0--00---6---0--00--0-3||
   *   * **  *  **       *  **  * *

Verse cont.
D|-----------------||1X
A|-----------------||
F|-----------------||
C|-0--0--0-000--5--||
G|-0--0--0-000--5--||
C|-0--0--0-000--5--||
   *  *  * ***  *
Pre Chorus
D|----------------------------||1X
A|----------------------------||
F|----------------------------||
C|3------5---------6----------||
G|3------5---------6----------||
C|3------5---------6----------||

Chorus
D|-------------------------------------||4X
A|-------------------------------------||
F|-------------------------------------||
C|-------------------------------------||
G|-------------------------------------||
C|0-0-0-19-19--0-0-0-20-20--0-0-20-20--||

Pre Chorus
D|----------------------------||1X
A|----------------------------||
F|----------------------------||
C|3------5---------6----------||
G|3------5---------6----------||
C|3------5---------6----------||

Chorus
D|-------------------------------------||4X
A|-------------------------------------||
F|-------------------------------------||
C|-------------------------------------||
G|-------------------------------------||
C|0-0-0-19-19--0-0-0-20-20--0-0-20-20--||

Bridge         /-----Play--4X------------ /----Play-4X--   
D|------------|---------------------------|---------------||
A|------------|---------------------------|---------------||
F|------------|---------------------------|---------------||
C|5-----------|------3---------------3--1-|----------3----||
G|5-----------|---5---------------5-------|-------7-----5-||
C|5-----------|3--------1------1----------|----5----------||

D|----------------||3X
A|----------------||
F|----------------||
C|5---------------||
G|5---------------||
C|5---------------||

D|----------------------------||1X
A|----------------------------||
F|----------------------------||
C|3------5---------6----------||
G|3------5---------6----------||
C|3------5---------6----------||

D|-------------------------------------||2X
A|-------------------------------------||
F|-------------------------------------||
C|-------------------------------------||
G|-------------------------------------||
C|0-0-0-19-19--0-0-0-20-20--0-0-20-20--||

D|----------------------------||1X
A|----------------------------||
F|----------------------------||
C|3------5---------6----------||
G|3------5---------6----------||
C|3------5---------6----------||

D|-------------------------------------||2X
A|-------------------------------------||
F|-------------------------------------||
C|-------------------------------------||
G|-------------------------------------||
C|0-0-0-19-19--0-0-0-20-20--0-0-20-20--||

D|-------------------------------------||2X
A|-------------------------------------||
F|-------------------------------------||
C|-------------------------------------||
G|-------------------------------------||
C|0-0-0-19-19--0-0-0-20-20--0-0-20-20--||

D|-------------------------------------||2X
A|-------------------------------------||
F|-------------------------------------||
C|-------------------------------------||
G|-------------------------------------||
C|0-0-0-19-19--0-0-0-20-20--0-0-20-20--||

D|-------------------------------------||2X
A|-------------------------------------||
F|-------------------------------------||
C|-------------------------------------||
G|-------------------------------------||
C|0-0-0-19-19--0-0-0-20-20--0-0-20-20--||

D|-------------||
A|-------------||
F|-------------||
C|3------------||
G|3------------||
C|3------------|| 
Аккорд CАккорд GАккорд FАккорд AАккорд D

Godsmack — I Stand Alone

 Godsmack
I Stand Alone

Transcribed By: Ryan Huntsman  (IbanezBassMX)
Email: Ryan82184@aol.com

Tunning: tune to Drop D tunning first and then tune it down one whole step.
low to high: (C,G,C,F)

F--------------------------------------
C--------------------------------------
G--------------------------------------
C-0~~~--------------------------3--5/--

(0:11)
F-------------------------
C-------------------------  X2
G-------------------------
C-0-0-0-----0-0-0----0-0--

F----------------------------
C----------------------------
G----------------------------
C-0-0-0----0-0-0----0-0-12/--

Verses  (0:23, 0:57)
F-----------------------------------------------------------
C-----------------------------------------------------------
G-----------------------------------------------------------
C-0---0--4-0-0~-0-4-0--6--6-6--0---0-4-0-0~-0-4-0--5/3-2-3--

F----------------------------------------------
C----------------------------------------------
G----------------------------------------------
C-0---0-4-0-0~-0-4-0-6---6-6---0---0-4-0-0~-0--

F----------------------------------------------------------
C----------------------------------------------------------
G----------------------------------------------------------
C-0---0-4-0-0~-0-4-0-6-6-6-6---0---0-4-0-0~-0-4-0-5/3-3-3--

F-----------------------------------------------------
C-----------------------------------------------------
G-----------------------------------------------------
C-0----0-7-0-0~-0-4-0-6-6-6-0---6~----------6-----6/--

F-------------------------
C-------------------------  X2
G-------------------------
C-0-0-0-----0-0-0----0-0--

F----------------------------
C----------------------------
G----------------------------
C-0-0-0----0-0-0----0-0-12/--

F----------------------------
C----------------------------
G----------------------------
C-0--0-4-0-0~-0-4-0-5/3-3-0--

Pre-Chorus  (1:19)
F--------------------------------------------
C--------------------------------------------
G--------------------------------------------
C-5--5~-5-5~-5-5-58--8--8~-8-8~-8-0-0-1--1--

2nd Chorus  (1:25, 3:03)
F---------------------------------------------------------------
C---------------------------------------------------------------
G---------------------------------------------------------------
C-0-0-0-------0-0-0-----0-0------0-0-0-------0-0-0-----0-0-0-0--

F------------------------------------------------------
C------------------------------------------------------
G------------------------------------------------------
C-5---5~-5-5~-5--5-5--58---8---8~-8-8~-8-8-8-8-8-8-8--

F---------------------------------------------------------------
C---------------------------------------------------------------
G---------------------------------------------------------------
C-0-0-0-------0-0-0-----0-0------0-0-0-------0-0-0-----0-0-0-0--

F-------------------------------------
C-------------------------------------  X4
G-------12~-12-------13-13-----13-13--
C-0-0-0--------0-0-0-------0-0--------

Bridge  (1:59)   X3
F------------------------------------------------------------------------------------
C------------------------------------------------------------------------------------
G------------------------------------------------------------------------------------
C-0-0~-0-0~-0-0-0-0-0--0-0~-0-0~-0-0-0--3-3~-3-3~-3-3-3-3--3-3~-3-3-0-3-3-3-0-1-1-1--

F------------------------------------------------------------------------------------
C------------------------------------------------------------------------------------
G------------------------------------------------------------------------------------
C-0-0~-0-0~-0-0-0--0--0~-0-0~--0-0--3--3~-3-3~-3-3-3-3-3--3--3~-3-3-0-3-3-3-0-1-1-1--

Interlude  (2:46)
F----------------------------------------------------------------
C----------------------------------------------------------------
G----------------------------------------------------------------
C-0----0--4-0-0~-4---0--6-6-6-6---0----0--4-0-0~-0-4-0--5/3-3-3--

F-------------------------------------------------------
C-------------------------------------------------------
G-------------------------------------------------------
C-0-----0--4-0-0~-0-4-0--6-6-6-0---6----------6-----6/--

3rd Chorus  (2:58)
F-------------------------
C-------------------------  X2
G-------------------------
C-0-0-0-----0-0-0----0-0--

F----------------------------
C----------------------------
G----------------------------
C-0-0-0----0-0-0----0-0-12/--

(3:28)
F--------------------------------
C--------------------------------  X2
G--------------------------------
C-0-0-0-7~-7-0-0-0-8--8-0-0-8-8--

Thats it, have fun. GW
This tab is 100% correct. 
Please rate this tab, Thanks. 
Аккорд DАккорд F

Godsmack — I Stand Alone

 Intro
(No bass)

G:------------------------
D:------------------------
A:------------------------
E:------------------------

G:---00---11-1------------
D:------------------------
A:333---33--3-------------
E:------------------------
Repeat 4x

Verse

G:------------------------
D:-------------------------
A:3-33-3-33---33-3-33-3----3
E:----------3----------3-0
Repeat 4x

pre-chorus
Sme as verse but,
G:------------------------
D:---4---4----4----4------
A:------------------------
E:------------------------

Chorusx2 then

G:------------------------
D:-------------1111-------
A:----33333---------------
E:------------------------
Repeat 2x after chorusx2

Repeat above tab then go back to pre-chorus then chorus then end song 

Godsmack — I Stand Alone

 Play ti over the solo:
|--------------------------------------------------------------------|
|--------------------------------------------------------------------|
|--------------------------------------------------------------------|
|-0--x-x-0--x-x-6--6-6--0--x-x-0--x-x-5p3-3--0--x-x-0--x-x-6--6-6-6~-|
|-0--x-x-0--x-x-6--6-6--0--x-x-0--x-x-5p3-3--0--x-x-0--x-x-6--6-6-6~-|
|-0--x-x-0--x-x-6--6-6--0--x-x-0--x-x-5p3-3--0--x-x-0--x-x-6--6-6-6~-|

Solo(w/ wah)
|-------------------------------------------------------|
|-------------------------------------------------------|
|-------------------------------------------------------|
|-10/12-12-12-12-12-12-12-12-12-12-12-12-12-12-12-10/12-|
|-------------------------------------------------------|
|-------------------------------------------------------|

|-------------------------------------------------------|
|-------------------------------------------------------|
|-------------------------------------------------------|
|-12-12-12-12-12-12-1210-10-10-108-8-0-10/12-12-12-12-|
|-------------------------------------------------------|
|-------------------------------------------------------|

|-------------------------------------|
|-------------------------------------|
|-------------------------------------|
|-12-12-12-12-12-12-12-12-12-12-12-6~-|
|----------------------------------5~-|
|-------------------------------------|