Портал для гитаристов
gtars.ru

Godsmack — Make Me Believe

 D----------------------------------------------------------------------------------
A----------------------------------------------------------------------------------
F-------10-10-x-8-8-x-7-7----------------------------------------------------------
C-------10-10-x-8-8-x-7-7----------------------------------------------------------
G-000x--8--8--x-6-6-x-5-5--5-5-5-5-5-5-0-0-3-0-0-1---------------------------------
C-000x---------------------5-5-5-5-5-5-0-0-3-0-0-1--0-0-0-0-0-0-8-8-8-7-7-7-0--0-0-

D------------------------------------------------------------------------------
A------------------------------------------------------------------------------
F-------------------------7-7-7-7-7----------------7-7-7-7-7-------------------
C-------------------------7-7-7-7-7----------------7-7-7-7-7-------------------
G-------------------------5-5-5-5-5----------------5-5-5-5-5-8-8-8-7-7-7-5-5-5-
C0-0-0-8-8-8-7-7-7-5-5-5-------------8-8-8-8-7-7-7-----------8-8-8-7-7-7-5-5-5- 

Godsmack — Make Me Believe

 Band: Godsmack
Song: Make Me Believe
Tabbed By: Nick Treglown
Tuning: CGCFAD

PM.=Palm Mute
~  =Let Ring 
INTRO
|------------------------------------------------|
|------------------------------------------------|
|------------------------------------------------|
|-0-0----15-15-15-15---13-13-13-13---12-12-12-12-|
|-0-0----15-15-15-15---13-13-13-13---12-12-12-12-|	x3
|-0-0----15-15-15-15---13-13-13-13---12-12-12-12-|

Fill
|------------------------|                                                    
|------------------------|
|------------------------|
|----5-5-5-5--0-0-3-0-0-1|
|----5-5-5-5--0-0-3-0-0-1|
|----5-5-5-5--0-0-3-0-0-1|
PM            ...   ...

VERSE
|-----------------------------------------|
|-----------------------------------------|
|-----------------------------------------|
|-----------------------------------------|
|-----------------------------------------|
|0-0-0-0-0--8-8-8-8-8-7-7-7-7-7-5-5-5-5-5-|
PM.......................................

FILL                                  
|---------------------------------|
|---------------------------------|
|-7-7-7---------------------------|
|-7-7-7---------------------------|x4
|-5-5-5---------------------------|
|---------8-8-8-7-7-7-7-5-5-5-----|
first time palm mute 8,7 and 5 second time play open as power chords and then repeat

CHORUS:
|------------------------------------------------|
|------------------------------------------------|
|------------------------------------------------|
|-0-0----15-15-15-15---13-13-13-13---12-12-12-12-|
|-0-0----15-15-15-15---13-13-13-13---12-12-12-12-|
|-0-0----15-15-15-15---13-13-13-13---12-12-12-12-|
                                                                              

BRIDGE:
|--------------------------------|
|--3--------------------8--------|
|--2--------------------10-------|
|--0--------------------8--------|
|--0--------------------8--------|
|--0--------------------8--------|
                   

ENDING:
|---------------------------------------------------|
|------------------------------------------------3~-|
|------------------------------------------------2~-|
|-0-0----15-15-15-15---13-13-13-13---12-12-12-12-0~-|
|-0-0----15-15-15-15---13-13-13-13---12-12-12-12-0~-|	x3
|-0-0----15-15-15-15---13-13-13-13---12-12-12-12-0~-|