Портал для гитаристов
gtars.ru

Godsmack — Running Blind

 Song:  Running Blind
Group: Godsmack
Album: The Other Side
Transcribed by: hagop.mouradian@utoronto.ca

This is the rhythm guitar.

Drop down a half step Eb Ab Db Gb Bb eb (low to high)

Intro & First Verse...

Can't find the answers 
I've been crawling on my knees 
Looking for anything 
To keep me from drowning 
Promises have been turned to lies 
Can't even be honest inside 
Now I'm running backward 
Watching my life wave me goodbye 

eb|---0---0---0---0---|---0---0---|---3---3---3---|
Bb|---0---0---0---0---|---3---3---|---1---1---1---|
Gb|---0---0---0---0---|---2---2---|---0---0---0---|
Db|---2---2---2---2---|---0---0---|---2---2---2---|
Ab|---2---2---2---2---|---0---0---|---3---3---3---|
Eb|---0---0---0---0---|-----------|---------------|

Chorus...

Running blind 
I'm running blind 

eb|---------------|---------------|
Bb|---------------|---------------|
Gb|---6---6---6---|---8---8---8---|
Db|---7---7---7---|---9---9---9---|
Ab|---7---7---7---|---9---9---9---|
Eb|---5---5---5---|---7---7---7---|

Somebody help me see I'm running blind 

eb|---------------|---------------|
Bb|---------------|---------------|
Gb|---4---4---4---|---2---2---2---|
Db|---5---5---5---|---3---3---3---|
Ab|---5---5---5---|---3---3---3---|
Eb|---3---3---3---|---1---1---1---|

Second Verse...

Searching for nothing 
Wondering if I'll change 
I'm trying everything 
But everything still stays the same 
I thought if I showed you I could fly 
Wouldn't need anyone by my side 
Now I'm running backward 
With broken wings I know I'll die 

eb|---0---0---0---0---|---0---0---|---3---3---3---|
Bb|---0---0---0---0---|---3---3---|---1---1---1---|
Gb|---0---0---0---0---|---2---2---|---0---0---0---|
Db|---2---2---2---2---|---0---0---|---2---2---2---|
Ab|---2---2---2---2---|---0---0---|---3---3---3---|
Eb|---0---0---0---0---|-----------|---------------|

Chorus...

Running blind 
I'm running blind 

eb|---------------|---------------|
Bb|---------------|---------------|
Gb|---6---6---6---|---8---8---8---|
Db|---7---7---7---|---9---9---9---|
Ab|---7---7---7---|---9---9---9---|
Eb|---5---5---5---|---7---7---7---|

Somebody help me see I'm running blind 

eb|---------------|---------------|
Bb|---------------|---------------|
Gb|---4---4---4---|---2---2---2---|
Db|---5---5---5---|---3---3---3---|
Ab|---5---5---5---|---3---3---3---|
Eb|---3---3---3---|---1---1---1---|

Bridge...

Running blind 
Running blind 
Running blind 

eb|---0---0---0---0---|---0---0---|---3---3---3---|
Bb|---0---0---0---0---|---3---3---|---1---1---1---|
Gb|---0---0---0---0---|---2---2---|---0---0---0---|
Db|---2---2---2---2---|---0---0---|---2---2---2---|
Ab|---2---2---2---2---|---0---0---|---3---3---3---|
Eb|---0---0---0---0---|-----------|---------------|

During the solo, just play the verse followed by the chorus.

Last Verse...

I can't find the answers 
I've been crawling on my knees 
Looking for anything 
To keep me from drowning 
I'm running blind

Running blind 
Running blind 
Running blind 
Running blind 
Running blind 
Running blind 
Running blind 
Running blind

eb|---0---0---0---0---|---0---0---|---3---3---3---|
Bb|---0---0---0---0---|---3---3---|---1---1---1---|
Gb|---0---0---0---0---|---2---2---|---0---0---0---|
Db|---2---2---2---2---|---0---0---|---2---2---2---|
Ab|---2---2---2---2---|---0---0---|---3---3---3---|
Eb|---0---0---0---0---|-----------|---------------| 
Аккорд EbАккорд AbАккорд DbАккорд GbАккорд Bb

Godsmack — Running Blind

 Godsmack
Running Blind
Album: The Other Side

ok i put the lyrics and the chords together for the first verse and the chorus
after that i just wrote the lyrics cause i figure u dont need me to write the same
thing over and over again.  and the fill in w/ the second guitar is right here at the
beginning, if you've ever listened to the song you know where to put it.

the song is originally tuned down a half step
but since i dont have my guitar tuned like that all the time i tried arranging it to standard tuning

in the verse
the first chord is a Em, then a D and then a C (thats when he is tuned down a half step)
so the first chord might sound a little off, but the other two are fine

fill in                                   drop on 4th time
e----------------------------------------|-----|-------------
b----------------------------------------|-----|-------------
g--3s6--8--6--x2----3s6-8-6-----1--3p1---|-3p1-|--x4---------
d--------------------------------------1-|----1|-------------
a----------------------------------------|-----|-------------
e----------------------------------------|-----|-------------

Can't find the answers 
I've been crawling on my knees 
Looking for anything 
To keep me from drowning 
Promises have been turned to lies 
Can't even be honest inside 
Now I'm running backward 
Watching my life wave me goodbye 


e-------------------------------------------------------------
b-------------------------------------------------------------
g----------------6-6------------------------------------------
d--8---8-8-8---8-6-6---4-4---4-4------------------------------
a--6---6-6-6---6-4-4---4-4---4-4------------------------------
e--6---6-6-6---6-------2-2---2-2------------------------------

Running blind 
I'm running blind

e-------------------------------------------------------------
b-------------------------------------------------------------
g--5---5-5-5---5-5---7-7-7---7-7------------------------------
d--6---6-6-6---6-6---8-8-8---8-8------------------------------
a--6---6-6-6---6-6---8-8-8---8-8------------------------------
e--4---4-4-4---4-4---6-6-6---6-6------------------------------



Somebody help me see I'm running blind 

e-------------------------------------------------------------
b-------------------------------------------------------------
g--3---3-3-3---3-3---1-1-1---1-1------------------------------
d--4---4-4-4---4-4---2-2-2---2-2------------------------------
a--4---4-4-4---4-4---2-2-2---2-2------------------------------
e--2---2-2-2---2-2---0-0-0---0-0------------------------------


Searching for nothing 
Wondering if I'll change 
I'm trying everything 
But everything still stays the same 
I thought if I showed you I could fly 
Wouldn't need anyone by my side 
Now I'm running backward 
With broken wings I know I'll die 


Running blind 
I'm running blind 

Somebody help me see I'm running blind 

Running blind 
Running blind 
Running blind 




solo:
e-------------------------------------------------------------
b-------------------------------------------------------------
g--6-6/8-8-8/10-10-10/11-11-1110-10-108-8-86-6-6/8-8-------
d-------------------------------------------------------------
a-------------------------------------------------------------
e-------------------------------------------------------------

e-------------------------------------------------------------
b-------------------------------------------------------------
g----8-8/10-10-10/11-11-1110-10-108-8-6/8-------------------
d-------------------------------------------------------------
a-------------------------------------------------------------
e-------------------------------------------------------------

e-------------------------------------------------------------
b--11-11-7-7-9-9-6-6/7----------------------------------------
g----------------------8-8------------------------------------
d-------------------------------------------------------------
a-------------------------------------------------------------
e-------------------------------------------------------------

e-------------------------------------------------------------
b-------------------------------------------------------------
g--8-8/10-10-10/11----6--6/8--6-6-6---------------------------
d-------------------------------------------------------------
a-------------------------------------------------------------
e-------------------------------------------------------------

e-------------------------------------------------------------
b--9--9-9-9--9-9-98-8-6-----9--9-9-9--9-9-9/11-9-8-6---------
g------------------------8------------------------------------
d-------------------------------------------------------------
a-------------------------------------------------------------
e-------------------------------------------------------------

e-------------------------------------------------------------
b--9-9-9--9-9-98-8-6------7--7-7-7--7-7-7/9-9-9-9-9/11-11----
g---------------------8---------------------------------------
d-------------------------------------------------------------
a-------------------------------------------------------------
e-------------------------------------------------------------

I can't find the answers 
I've been crawling on my knees 
Looking for anything 
To keep me from drowning 
I'm running blind

Running blind 
Running blind 
Running blind 
Running blind 
Running blind 
Running blind 
Running blind 
Running blind



well thats it, this is my 3rd tab so please vote for this tab so know how good im doing 
Аккорд DАккорд C

Godsmack — Running Blind

 Tabber: Jason Botello
Song: Running Blind
Artist: Godsmack
Album: The Other Side
Tuning: Standard
------------------------------------------------------------------

Intro:
 Em Em     D  D    C  C
|-0--0-----0--0----0--0---------------------------------------------------|
|-0--0-----3--3----3--3---------------------------------------------------|
|-0--0-----2--2----0--0---------------------------------------------------|
|-2--2-----0--0----2--2---------------------------------------------------|
|-2--2-----0--0----3--3---------------------------------------------------|
|-0--0-----0--0----0--0---------------------------------------------------|

Fill
|-------0-----------------------------------------------------------------|
|-0-h-3------0-------0----------------------------------------------------|
|----------2---2---0---0--------------------------------------------------|
|----------------2-------2------------------------------------------------|
|-------------------------------------------------------------------------|
|-------------------------------------------------------------------------|

|-------0-----------------------------------------------------------------|
|-0-h-3-----0-------------------------------------------------------------|
|---------2---2---0-------------------------------------------------------|
|---------------2---------------------------------------------------------|
|-------------------------------------------------------------------------|
|-------------------------------------------------------------------------|

Verse
 Em D   C
|-0-0---0-----------------------------------------------------------------|
|-0-3---3-----------------------------------------------------------------|
|-0-2---0-----------------------------------------------------------------|
|-2-0---2-----------------------------------------------------------------|
|-2-0---3-----------------------------------------------------------------|
|-0-0---0-----------------------------------------------------------------|

Chorus
|-------------------------------------------------------------------------|
|-------------------------------------------------------------------------|
|-5----5-5-5--5--7-7-7---7-7---3--3-3-3---3-------------------------------|
|-6----6-6-6--6--8-8-8---8-8---4--4-4-4---4--2-2-2-2-2--------------------|
|-6----6-6-6--6--8-8-8---8-8---4--4-4-4---4--2-2-2-2-2--------------------|
|-4----4-4-4--4--6-6-6---6-6---2--2-2-2---2--0-0-0-0-0--------------------|

Solo
|----------------------------------------------------------------0--------|
|--333/555/777/88---------12-12-88-10-10-77-88---------------------0------|
|----------------------------------------------99-11-11-77-7h9------------|
|-----------------77h9----------------------------------------------------|
|-------------------------------------------------------------------------|
|-------------------------------------------------------------------------|

|-------------------------------------------------------------------------|
|10-10-10-10-10-10p9-99p77---10-10-10-10h12-12-10-9-7-10-10-10-10-10-10p9-|
|--------------------------9----------------------------------------------|
|-------------------------------------------------------------------------|
|-------------------------------------------------------------------------|
|-------------------------------------------------------------------------|

|-------------------------------------------------------------------------|
|99p77---8-8-8-8-8-8/10-10-10-10/12-12-12---------------------------------|
|------9------------------------------------------------------------------|
|-------------------------------------------------------------------------|
|-------------------------------------------------------------------------|
|-------------------------------------------------------------------------|

Fin.

Hoped you liked it! This is a fairly easy song, it just takes practice, like anything else. 
Аккорд EmАккорд DАккорд C

Godsmack — Running Blind

 i tabbed this with a 5 string... at standard tuning (B E A D G)

the song is played in Eb so if u have a 4 string tune to standard Eb (Eb Ab Db Gb)
and play all the 4's on the B string as 0pen on the Eb and play the other strings up a fret
(play 4 as 5) 😀
have fun... eassssy song... but beautiful  hehe



(00:14)
G|-------------------------------------------------------------------------|
D|-----------44------------------------------------------------------------|
A|------4-44------------4-44-22--------------------------------------------|
E|-------------------------------------------------------------------------|
B|-4-44------------4-44----------------------------------------------------|

G|-------------------------------------------------------------------------|
D|-----------44------------------------------------------------------------|
A|------4-44------------4-44-2---------------------------------------------|
E|-------------------------------------------------------------------------|
B|-4-44------------4-44----------------------------------------------------|

(00:28)
G|-------------------------------------------------------------------------|
D|-------------------------------------------------------------------------|
A|------4-4--22---------4-4--2-------------------------------------------|x4
E|-------------------------------------------------------------------------|
B|-4-4-------------4-4-----------------------------------------------------|

(00:56)
G|-------------------------------------------------------------------------|
D|-------------------------------------------------------------------------|
A|-------------------------------------------------------------------------|
E|-4-4-44-66-66--4-4-44-66-66--4-4-44-66-66--2-2-22-00-00------------------|
B|-------------------------------------------------------------------------|

(01:10)
G|-------------------------------------------------------------------------|
D|-----------44------------------------------------------------------------|
A|------4-44------------4-44-22--------------------------------------------|
E|-------------------------------------------------------------------------|
B|-4-44------------4-44----------------------------------------------------|

G|-------------------------------------------------------------------------|
D|-----------44------------------------------------------------------------|
A|------4-44------------4-44-2---------------------------------------------|
E|-------------------------------------------------------------------------|
B|-4-44------------4-44----------------------------------------------------|

(01:24)
G|-------------------------------------------------------------------------|
D|-------------------------------------------------------------------------|
A|------4-4--22---------4-4--2-------------------------------------------|x4
E|-------------------------------------------------------------------------|
B|-4-4-------------4-4-----------------------------------------------------|

(01:52)
G|-------------------------------------------------------------------------|
D|-------------------------------------------------------------------------|
A|-------------------------------------------------------------------------|
E|-4-4-44-66-66--4-4-44-66-66--4-4-44-66-66--2-2-22-00-00------------------|
B|-------------------------------------------------------------------------|

(02:06)
G|-------------------------------------------------------------------------|
D|-----------44------------------------------------------------------------|
A|------4-44------------4-44-22--------------------------------------------|
E|-------------------------------------------------------------------------|
B|-4-44------------4-44----------------------------------------------------|

G|-------------------------------------------------------------------------|
D|-----------44------------------------------------------------------------|
A|------4-44------------4-44-2---------------------------------------------|
E|-------------------------------------------------------------------------|
B|-4-44------------4-44----------------------------------------------------|

(02:20)
G|-------------------------------------------------------------------------|
D|-------------------------------------------------------------------------|
A|------4-4--22---------4-4--2-------------------------------------------|x2
E|-------------------------------------------------------------------------|
B|-4-4-------------4-4-----------------------------------------------------|

(02:34)
G|-------------------------------------------------------------------------|
D|-------------------------------------------------------------------------|
A|-------------------------------------------------------------------------|
E|-4-4-44-66-66--4-4-44-66-66--4-4-44-66-66--2-2-22-00-00------------------|
B|-------------------------------------------------------------------------|

(02:48)
G|-------------------------------------------------------------------------|
D|-----------44------------------------------------------------------------|
A|------4-44------------4-44-22--------------------------------------------|
E|-------------------------------------------------------------------------|
B|-4-44------------4-44----------------------------------------------------|

G|-------------------------------------------------------------------------|
D|-----------44------------------------------------------------------------|
A|------4-44------------4-44-2---------------------------------------------|
E|-------------------------------------------------------------------------|
B|-4-44------------4-44----------------------------------------------------|

(03:02)
G|-------------------------------------------------------------------------|
D|-------------------------------------------------------------------------|
A|------4-4--22---------4-4--2-------------------------------------------|x2
E|-------------------------------------------------------------------------|
B|-4-4-------------4-4-----------------------------------------------------|

(03:16)
G|-------------------------------------------------------------------------|
D|-----------44------------------------------------------------------------|
A|------4-44------------4-44-22------------------------------------------|x3
E|-------------------------------------------------------------------------|
B|-4-44------------4-44----------------------------------------------------|

G|-------------------------------------------------------------------------|
D|-----------44------------------------------------------------------------|
A|------4-44------------4-44-2---------------------------------------------|
E|-------------------------------------------------------------------------|
B|-4-44------------4-44--------4~ring~-------------------------------------| 
Аккорд BАккорд EАккорд AАккорд DАккорд GАккорд EbАккорд AbАккорд DbАккорд Gb