Портал для гитаристов
gtars.ru

Godsmack — Serenity

 -------------------------------------------------------------------------------
			     Serenity - Godsmack
-------------------------------------------------------------------------------

Tabbed by:Tim Vlieger
Email:all_powerful_mercenary@ananzi.co.za

Tuning:dropped D(it may be tuned down a half step, im not sure)
i didn't tab the rhythm, so just listen to the song and you'll get the hang of it

intro and verse
   Dmin             Ddim5
e|---------------------------------------------------------------------------|
B|---------------------------------------------------------------------------|
G|---------------------------------------------------------------------------|
D|---0---0---0---0-----0-----0-----------------------------------------------|
A|---------------------------------------------------------------------------|
D|-0---0---0---3---3-6---6-3-------------------------------------------------|
Last time through
  Dmin              Ddim5
e|---------------------------------------------------------------------------|
B|---------------------------------------------------------------------------|
G|---------------------------------------------------------------------------|
D|---0---0---0---0-----------------------------------------------------------|
A|---------------------------------------------------------------------------|
D|-0---0---0---3---3-6-------------------------------------------------------|

Chorus
   Dmin Dmin/F Dmin/G#
e|---------------------------------------------------------------------------|
B|----6-----6---6---6--------------------------------------------------------|
G|---7-7---7---7-------------------------------------------------------------|
D|--7---7--------------------------------------------------------------------|
A|-5------8-------8----------------------------------------------------------|
D|------------6--------------------------------------------------------------|

Bridge
  Dmin                 G#sus2  
e|---------------------------------------------------------------------------|
B|-----6---------6-----------------------------------------------------------|
G|---7---7----7----7---------3-----------3-----------------------------------|
D|----7---7----7-----7---6-----6-----6----6----------------------------------|
A|-5--------5--------------6-----6-----6----6--------------------------------|
D|---------------------6-----------6-----------------------------------------|

the chord that is played twice throughout the bridge is just an Fsus2 chord
e|---8------------------------------------------------------------------------|
B|---8------------------------------------------------------------------------|
G|---10-----------------------------------------------------------------------|
D|---10-----------------------------------------------------------------------|
A|---8------------------------------------------------------------------------|
D|----------------------------------------------------------------------------| 
Аккорд Ddim5Аккорд FАккорд G#Аккорд G#sus2Аккорд Fsus2

Godsmack — Serenity

 Title  : Serenity
Artist : Godsmack

Tabbed By : Jacky (jagdeep_1789@yahoo.com)                                    


Guitar Tuning : DADGBE (Dropped D)
                                                                                
E||------------------------|--------------------------|------------------------|
B||------------------------|--------------------------|------------------------|
G||-------7-------7-----7--|-----7--------7--------7--|-------7-------7-----7--|
D||-------0-------0-----0--|-----0--------0--------0--|-------0-------0-----0--|
A||------------------------|--------------------------|------------------------|
D||--0-------0-------0-----|--3-----3--6-----6--3-----|--0-------0-------0-----|


                                                                               
--------------------------|------------------------|--------------------------|
--------------------------|------------------------|--------------------------|
-----7--------7--------7--|-------7-------7-----7--|-----7--------7--------7--|
-----0--------0--------0--|-------0-------0-----0--|-----0--------0--------0--|
--------------------------|------------------------|--------------------------|
--3-----3--6-----6--3-----|--0-------0-------0-----|--3-----3--6-----6--3-----|


                                                                         
------------------------|----------------------|------------------------|
------------------------|----------------------|------------------------|
-------7-------7-----7--|-----7-----7----------|-------7-------7-----7--|
-------0-------0-----0--|-----0----------------|-------0-------0-----0--|
------------------------|----------------------|------------------------|
--0-------0-------0-----|--3-----3--6----------|--0-------0-------0-----|


                                                                               
--------------------------|------------------------|--------------------------|
--------------------------|------------------------|--------------------------|
-----7--------7--------7--|-------7-------7-----7--|-----7--------7--------7--|
-----0--------0--------0--|-------0-------0-----0--|-----0--------0--------0--|
--------------------------|------------------------|--------------------------|
--3-----3--6-----6--3-----|--0-------0-------0-----|--3-----3--6-----6--3-----|


                                                                             
------------------------|--------------------------|------------------------|
------------------------|--------------------------|------------------------|
-------7-------7-----7--|-----7--------7--------7--|-------7-------7-----7--|
-------0-------0-----0--|-----0--------0--------0--|-------0-------0-----0--|
------------------------|--------------------------|------------------------|
--0-------0-------0-----|--3-----3--6-----6--3-----|--0-------0-------0-----|


                                                                             
----------------------||-------------------------|--------------------------|
----------------------||-------------------------|--------------------------|
-----7-----7----------||*-------7-------7-----7--|-----7--------7--------7--|
-----0----------------||*-------0-------0-----0--|-----0--------0--------0--|
----------------------||-------------------------|--------------------------|
--3-----3--6----------||---0-------0-------0-----|--3-----3--6-----6--3-----|


                                                                             
------------------------|--------------------------|------------------------|
------------------------|--------------------------|------------------------|
-------7-------7-----7--|-----7--------7--------7--|-------7-------7-----7--|
-------0-------0-----0--|-----0--------0--------0--|-------0-------0-----0--|
------------------------|--------------------------|------------------------|
--0-------0-------0-----|--3-----3--6-----6--3-----|--0-------0-------0-----|


                                                    
--------------------------|------------------------|
--------------------------|------------------------|
-----7--------7--------7--|-------7-------7-----7--|
-----0--------0--------0--|-------0-------0-----0--|
--------------------------|------------------------|
--3-----3--6-----6--3-----|--0-------0-------0-----|


                                                       
---------------------------||-------------------------|
---------------------------||-------------------------|
-----7--------7--------7--*||-----------7-------------|
-----0--------0--------0--*||--------5--5----5-----5--|
---------------------------||-----5-------------5-----|
--3-----3--6-----6--3------||--5----------------------|


                                                      
---------------------------|-------------------------|
---------------------------|-------------------------|
--------10--------8-----5--|-----------7-------------|
--------8---------6-----3--|--------5--5----5-----5--|
-----8---------6-----------|-----5-------------5-----|
--8---------6--------3-----|--5----------------------|


                                                      
---------------------------|-------------------------|
---------------------------|-------------------------|
--------10--------8-----5--|-----------7-------------|
--------8---------6-----3--|--------5--5----5-----5--|
-----8---------6-----------|-----5-------------5-----|
--8---------6--------3-----|--5----------------------|


                                                      
---------------------------|-------------------------|
---------------------------|-------------------------|
--------10--------8-----5--|-----------7-------------|
--------8---------6-----3--|--------5--5----5-----5--|
-----8---------6-----------|-----5-------------5-----|
--8---------6--------3-----|--5----------------------|


                                                        
------------------------------|------------------------|
------------------------------|------------------------|
--------10----------12-----8--|-------7-------7-----7--|
--------8-----------10-----6--|-------0-------0-----0--|
-----8----------10------------|------------------------|
--8---------10----------6-----|--0-------0-------0-----|


                                                                               
--------------------------|------------------------|--------------------------|
--------------------------|------------------------|--------------------------|
-----7--------7--------7--|-------7-------7-----7--|-----7--------7--------7--|
-----0--------0--------0--|-------0-------0-----0--|-----0--------0--------0--|
--------------------------|------------------------|--------------------------|
--3-----3--6-----6--3-----|--0-------0-------0-----|--3-----3--6-----6--3-----|


                                                                             
------------------------|--------------------------|------------------------|
------------------------|--------------------------|------------------------|
-------7-------7-----7--|-----7--------7--------7--|-------7-------7-----7--|
-------0-------0-----0--|-----0--------0--------0--|-------0-------0-----0--|
------------------------|--------------------------|------------------------|
--0-------0-------0-----|--3-----3--6-----6--3-----|--0-------0-------0-----|


                                                                             
----------------------||-------------------------|--------------------------|
----------------------||-------------------------|--------------------------|
-----7-----7----------||*-------7-------7-----7--|-----7--------7--------7--|
-----0----------------||*-------0-------0-----0--|-----0--------0--------0--|
----------------------||-------------------------|--------------------------|
--3-----3--6----------||---0-------0-------0-----|--3-----3--6-----6--3-----|


                                                                             
------------------------|--------------------------|------------------------|
------------------------|--------------------------|------------------------|
-------7-------7-----7--|-----7--------7--------7--|-------7-------7-----7--|
-------0-------0-----0--|-----0--------0--------0--|-------0-------0-----0--|
------------------------|--------------------------|------------------------|
--0-------0-------0-----|--3-----3--6-----6--3-----|--0-------0-------0-----|


                                                    
--------------------------|------------------------|
--------------------------|------------------------|
-----7--------7--------7--|-------7-------7-----7--|
-----0--------0--------0--|-------0-------0-----0--|
--------------------------|------------------------|
--3-----3--6-----6--3-----|--0-------0-------0-----|


                                                       
---------------------------||-------------------------|
---------------------------||-------------------------|
-----7--------7--------7--*||-----------7-------------|
-----0--------0--------0--*||--------5--5----5-----5--|
---------------------------||-----5-------------5-----|
--3-----3--6-----6--3------||--5----------------------|


                                                      
---------------------------|-------------------------|
---------------------------|-------------------------|
--------10--------8-----5--|-----------7-------------|
--------8---------6-----3--|--------5--5----5-----5--|
-----8---------6-----------|-----5-------------5-----|
--8---------6--------3-----|--5----------------------|


                                                      
---------------------------|-------------------------|
---------------------------|-------------------------|
--------10--------8-----5--|-----------7-------------|
--------8---------6-----3--|--------5--5----5-----5--|
-----8---------6-----------|-----5-------------5-----|
--8---------6--------3-----|--5----------------------|


                                                      
---------------------------|-------------------------|
---------------------------|-------------------------|
--------10--------8-----5--|-----------7-------------|
--------8---------6-----3--|--------5--5----5-----5--|
-----8---------6-----------|-----5-------------5-----|
--8---------6--------3-----|--5----------------------|


                                                        
------------------------------|------------------------|
------------------------------|------------------------|
--------10----------12-----8--|-------7-------7-----7--|
--------8-----------10-----6--|-------0-------0-----0--|
-----8----------10------------|------------------------|
--8---------10----------6-----|--0-------0-------0-----|


                                                                               
--------------------------|------------------------|--------------------------|
--------------------------|------------------------|--------------------------|
-----7--------7--------7--|-------7-------7-----7--|-----7--------7--------7--|
-----0--------0--------0--|-------0-------0-----0--|-----0--------0--------0--|
--------------------------|------------------------|--------------------------|
--3-----3--6-----6--3-----|--0-------0-------0-----|--3-----3--6-----6--3-----|


                                                                             
------------------------|--------------------------|------------------------|
------------------------|--------------------------|------------------------|
-------7-------7-----7--|-----7--------7--------7--|-------7-------7-----7--|
-------0-------0-----0--|-----0--------0--------0--|-------0-------0-----0--|
------------------------|--------------------------|------------------------|
--0-------0-------0-----|--3-----3--6-----6--3-----|--0-------0-------0-----|


                                                                         
----------------------|--0---------0----------|-------------0-----------|
----------------------|--3----3---------3-----|-------3--------3-----3--|
-----7-----7----------|--2-----------------2--|----------2--------2-----|
-----0----------------|--0--------------------|----0--------------------|
----------------------|-----------------------|-------------------------|
--3-----3--6----------|-----------------------|-------------------------|


                                                                       
-----------------------|----------------------|--0---------0----------|
-----------------------|----------------------|--3----3---------3-----|
------------7----------|-----------7----------|--2-----------------2--|
--6----6---------8--6--|------6-------8--6----|--0--------------------|
--6--------------------|----------------------|-----------------------|
--6--------------------|----------------------|-----------------------|


                                                                         
-------------0-----------|-----------------------|----------------------|
-------3--------3-----3--|-----------------------|----------------------|
----------2--------2-----|------------7----------|-----------7----------|
----0--------------------|--6----6---------8--6--|------6-------8--6----|
-------------------------|--6--------------------|----------------------|
-------------------------|--6--------------------|----------------------|


                                                                          
--0---------0----------|-------------0-----------|-----------------------|
--3----3---------3-----|-------3--------3-----3--|-----------------------|
--2-----------------2--|----------2--------2-----|------------7----------|
--0--------------------|----0--------------------|--6----6---------8--6--|
-----------------------|-------------------------|--6--------------------|
-----------------------|-------------------------|--6--------------------|


                                                                         
----------------------|--0---------0----------|-------------0-----------|
----------------------|--3----3---------3-----|-------3--------3-----3--|
-----------7----------|--2-----------------2--|----------2--------2-----|
------6-------8--6----|--0--------------------|----0--------------------|
----------------------|-----------------------|-------------------------|
----------------------|-----------------------|-------------------------|


                                                                
-------------------|------------------|------------------------|
-------------------|------------------|------------------------|
-------------------|------------------|-------7-------7-----7--|
--6----------------|------------------|-------0-------0-----0--|
--6----------------|------------------|------------------------|
--6----------------|------------------|--0-------0-------0-----|


                                                                               
--------------------------|------------------------|--------------------------|
--------------------------|------------------------|--------------------------|
-----7--------7--------7--|-------7-------7-----7--|-----7--------7--------7--|
-----0--------0--------0--|-------0-------0-----0--|-----0--------0--------0--|
--------------------------|------------------------|--------------------------|
--3-----3--6-----6--3-----|--0-------0-------0-----|--3-----3--6-----6--3-----|


                                                                             
------------------------|--------------------------|------------------------|
------------------------|--------------------------|------------------------|
-------7-------7-----7--|-----7--------7--------7--|-------7-------7-----7--|
-------0-------0-----0--|-----0--------0--------0--|-------0-------0-----0--|
------------------------|--------------------------|------------------------|
--0-------0-------0-----|--3-----3--6-----6--3-----|--0-------0-------0-----|


                                                                               
--------------------------|------------------------|--------------------------|
--------------------------|------------------------|--------------------------|
-----7--------7--------7--|-------7-------7-----7--|-----7--------7--------7--|
-----0--------0--------0--|-------0-------0-----0--|-----0--------0--------0--|
--------------------------|------------------------|--------------------------|
--3-----3--6-----6--3-----|--0-------0-------0-----|--3-----3--6-----6--3-----|


                                                                             
------------------------|--------------------------|------------------------|
------------------------|--------------------------|------------------------|
-------7-------7-----7--|-----7--------7--------7--|-------7-------7-----7--|
-------0-------0-----0--|-----0--------0--------0--|-------0-------0-----0--|
------------------------|--------------------------|------------------------|
--0-------0-------0-----|--3-----3--6-----6--3-----|--0-------0-------0-----|


                                                                           
--------------------------|------------------------|----------------------|
--------------------------|------------------------|----------------------|
-----7--------7--------7--|-------7-------7-----7--|-----7-----7----------|
-----0--------0--------0--|-------0-------0-----0--|-----0----------------|
--------------------------|------------------------|----------------------|
--3-----3--6-----6--3-----|--0-------0-------0-----|--3-----3--6----------|


                     
--0----------------||
--3----------------||
--2----------------||
--0----------------||
--0----------------||
--0----------------|| 
Аккорд D

Godsmack — Serenity

 This is it, not very hard, just if anything is wrong with it send me an email
Shawntell182@aol.com


Intro x2
G-----------------		
D-0-00-00-33-66-3   x3 then	
A-----------------		
E-----------------	

G-----------------
D-0-00-00-333-6---
A-----------------
E-----------------

Main Riff (Verse)
G----------------
D-0-00-00-33-66-3
A----------------
E----------------


Chorus
G-------------	
D-5-5-5-88-6-3	x3 then
A-------------	
E-------------	


G---------------
D-5-5-5-101010-6
A---------------
E--------------- 

Godsmack — Serenity

 godsmack:serenity
this is what I heard on radio, so there might be longer parts
key:dadgbe(dropped d)
(12 stg)

intro/riff 1

|----------------------------------|
|----------------------------------|
|----------------------------------|
|----0----0-0-----0------0------0--|
|----------------------------------|
|--0---0--------3---3--6---6--3----|  intro end on 6-|
                           ^-------------------------|
chorus
                      1,2,3                              4th time  
|--------------------|-----------------|                |----------------------|
|------8----------11-|------9-------6--|                |------13-------9------|
|--------7-----------|-----------------|                |----------------------|
|----5----5----------|-----------------|                |----------------------|
|---5------5----8----|---6-------------|                |---10-----------------|
|--5-----------8-----|--6-------3------| repeat 4x then |-10---------6---------|

riff 1

chorus

riff 1

break
upstroke chord
|--0----0-------------0----------------------------------|
|--3--3---3-------3-----3--------------------------------|
|--2--------2-------2-----2---------7---------6---7------|
|--0------------0--------------6--6---8--6--6---6---8-6--|
|--0---------------------------6-------------------------|
|--0---------------------------6-------------------------| 
repeat                         ^------2nd time hold chord on 6th fret

riff 1
repeat till end 
last chord
upstroke
|--0
|--3
|--2
|--0
|--0
|--0
                                                      enjoy 

Godsmack — Serenity

 this is serenity....
tabed by rob
album-faceless
you will have to figure out the timing cause i dont feel like tabbing it out.

intro/verse
e-----------------------------------
b-----------------------------------
g--7-7-7-7-7-7----------------------
d--0-0-0-0-0-0----------------------
a-----------------------------------
d-0-0-0-3-7-7-----------------------

chorus  on the chorus i just put the tab, not the number of times.
e-----------------------------------
b-----------------------------------
g-----------------------------------
d-5--8--6---------------------------
a-5--8--6---------------------------
d-5--8--6---------------------------

thats it..simple song but never the less, very good

                    cheers