Портал для гитаристов
gtars.ru

Godsmack — Someone In London

 This is 95% accurate but I'll welcome any changes.

e-------------------------------
B-------------------------------
G------------5------------------
D-----6^r------7------6^r---7--6
A-5-5----8-5------5-5-----8--7--
E-------------------------------

e----------------------------------------
B----------------------------------------
G------------5---------------------------
D-----6^r------7-----6^r---7-10---6-9---5
A-5-5----8-5-----5-5-----8------7-----6--
E----------------------------------------

after you finish that, start over and repeat a few times and that's
basically it. email me at Ghotihookfreak06@aol.com if you can correct
it or have any other questions.