Портал для гитаристов
gtars.ru

Godsmack — Straight Out Of Line

 Tabbed by:THE SANDMAN
Email:ryan5@iamwasted.соm

Tuning:drор c



Inтrо: (w/dist. and delay)
D|--------------------------------------------------------------|
A|--------------------------------------------------------------|
F|--------------------------------------------------------------|
C|--------------------------------------------------------------|
G|--(7)~~~~~(7)---(10)~~~~~-(10)9--(9)~~~12~~~(12)-----(7)~~-|
C|--------------------------------------------------------------|

D|---------------------------------------------------|
A|---------------------------------------------------|
F|---------------------------------------------------|
C|---------------------------------------------------|
G|---10~~~~~~(10)~~~(10)9--(9)~~~~~~~~(9)-----------|
C|---------------------------------------------------|

D|---------------------------------------------------------|
A|---------------------------------------------------------|
F|---------------------------------------------------------|
C|---------------------------------------------------------|
G|---------------------------------------------0-0h2-2-2---|
C|--0-2-2-2^-0-0-02-2-2^-0-0-02-2h3-0h2-2-2^h0-0-0h2-2-2---|
pm.............................


D|---------------------------------------------------|
A|---------------------------------------------------|
F|---------------------------------------------------|
C|--0---2-2--2-0-0---2-2---0--0---3------------------|
G|--0---2-2--2-0-0---2-2---0--0---3------------------|
C|--0---2-2--2-0-0---2-2---0--0---3------------------|

D|-----------------------------------------------------------|
A|-----------------------------------------------------------|
F|-----------------------------------------------------------|
C|-0-2-2-2-0-0--2-0--0-0h2-2h3--0--2-2-2-0-0--2-2--0-0---3---|
G|-0-2-2-2-0-0--2-0--0-0h2-2h3--0--2-2-2-0-0--2-2--0-0---3---|
C|-0-2-2-2-0-0--2-0--0-0h2-2h3--0--2-2-2-0-0--2-2--0-0---3---|


D|------------------------------|
A|------------------------------|
F|------------------------------|
C|---0h2-2-2p0-0-0h2-2-2p0-0----|
G|---0h2-2-2p0-0-0h2-2-2p0-0----|
C|---0h2-2-2p0-0-0h2-2-2p0-0----|
pm(with feedback)...............

Verses:
D|-------------------------------------|---------------------|
A|-------------------------------------|---------------------|
F|---9--x9h9-x-9----x-9-----x-9----9--о|-9---x-9h9-x9-x-9-x--|
C|------------------------------------о|---------------------|
G|-------------------------------------|---------------------|
C|-------------------------------------|---------------------|

D|-------------------------------------|---------------------|
A|-------------------------------------|---------------------|
F|---9--x9h9-x-9----x-9-----xxxxx-----о|-9---x-9h9-x9-x-9-9--|
C|------------------------------------о|---------------------|
G|-------------------------------------|---------------------|
C|-------------------------------------|---------------------|

Сноrus:
D|-----------------------------------------------------------------------|
A|---------------------------------3---333-3-3-3-------------------------|
F|---------------------------------2---222-2-2-2-------------------------|
C|--2---222-222--2-5-5-555-5-555-5-0---000-0-0-0--0-0--3-333--222--00----|
G|--2---222-222--2-5-5-555-5-555-5-0---000-0-0-0--0-0--3-333--222--00----|
C|--2---222-222--2-5-5-555-5-555-5-0---000-0-0-0--0-0--3-333--222--00----|


D|-------------------------------------------------------------|
A|--------------------------------------3-333-3333-3-----------|
F|--------------------------------------2-222-2222-2-----------|
C|--2--22-222-2-2/5--55-55555-55-5--0---0-000-0000-0--0-0--5---|
G|--2--22-222-2-2/5--55-55555-55-5--0---0-000-0000-0--0-0--3---|
C|--2--22-222-2-2/5--55-55555-55-5--0---0-000-0000-0--0-0--3---|


D|----------------------------------|
A|----------------------------------|
F|----------------------------------|
C|--5---5-5--5----5----5-5---5------|
G|--3---3-3--3----3----3-3---3------|
C|--3---3-3--3----3----3-3---3------|
pm      ....           ....

D|------------------------------------------------------|
A|------------------------------------------------------|
F|------------------------------------------------------|
C|-0--2-2--2-0-0--2-2--0---0--3----0-2-2-0-0-0h2-2h3----|
G|-0--2-2--2-0-0--2-2--0---0--3----0-2-2-0-0-0h2-2h3----|
C|-0--2-2--2-0-0--2-2--0---0--3----0-2-2-0-0-0h2-2h3----|



Guitar Sоlо: with wah
D|-/0----0--0--0---0--0-0-0--0--0---0----0----0----0--0---0----|
A|--5----5--5--5---5--5/8-8--8--8--11---11---11---11-11--11----|
F|-------------------------------------------------------------|
C|-------------------------------------------------------------|
G|-------------------------------------------------------------|
C|-------------------------------------------------------------|

соnтinuеd:
D|---15^-------12--------------------------------------------------|
A|--full----------15h1215h12----12---------------------------------|
F|---------------------------15----15-14-15 14h12-----12h14-12-----|
C|-------------------------------------------------14--------------|
G|-----------------------------------------------------------------|
C|-----------------------------------------------------------------|

соnтinuеd:
D|---------15^----(15)----15^-(15)---12--1215h12---0-------15-------------|
A|--0--0--full------------15^-(15)-----15-------15---15/17----17(17)5/---|
F|-----------------------half---------------------------------------------|
C|------------------------------------------------------------------------|
G|------------------------------------------------------------------------|
C|------------------------------------------------------------------------|

D|----15---17-----15--17----15----17--------15---18----15-15----18-----22^(22)-|
A|-19---19----19----19--1919---19-----11/17----17---17-17----17---1717---------|
F|-----------------------------------------------------------------------------|
C|-----------------------------------------------------------------------------|
G|-----------------------------------------------------------------------------|
C|-----------------------------------------------------------------------------|

Fill:
D|------------------------|
A|------------------------|
F|------------------------|
C|--3-33-33-3333-3333-----|
G|--3-33-33-3333-3333-----|
C|--3-33-33-3333-3333-----|
pm    ................

Оuтrо:
D|------------------------------------------------------------------------------
A|------------------------------------------------------------------------------
F|------------------------------------------------------------------------------
C|-0-2-2-0-0--2-2-0-0--3---0-2-2-2-0-0-2-2-0-------2h3--0-2-2-2-0-0--2-2-0-0-3--
G|-0-2-2-0-0--2-2-0-0--3---0-2-2-2-0-0-2-2-0-------2h3--0-2-2-2-0-0--2-2-0-0-3--
C|-0-2-2-0-0--2-2-0-0--3---0-2-2-2-0-0-2-2-0--12--2h3--0-2-2-2-0-0--2-2-0-0-3--

D|------------------------------------------------------------------------------
A|------------------------------------------------------------------------------
F|------------------------------------------------------------------------------
C|-0--22-2-0-0--2-2--0-0h2-2h3---0-2-2-0-0--2-2--0-0--3--0h2-2-2p0-0-0h2-2h3----
G|-0--22-2-0-0--2-2--0-0h2-2h3---0-2-2-0-0--2-2--0-0--3--0h2-2-2p0-0-0h2-2h3----
C|-0--22-2-0-0--2-2--0-0h2-2h3---0-2-2-0-0--2-2--0-0--3--0h2-2-2p0-0-0h2-2h3---- 

Godsmack — Straight Out Of Line

 Godsmack - Straight Out Of Line
Tabbed by: Rich Funk
4/27/03
Drop C tuning:
C-G-C-F-A-D

Gain: 8
EQ: Bass/Mid/Treble: 8/5/6


Intro

Gtr. 1 (dist.)
D|-----------------------------------------------------|
A|-----------------------------------------------------|
F|-----------------------------------------------------|
C|-----------------------------------------------------|
G|--(7)~~~~~(7)---(10)~~~~~-(10)9--(9)~~~12~~~(12)---|
C|-----------------------------------------------------|

Gtr. 1
D|---------------------------------------------------|
A|---------------------------------------------------|
F|---------------------------------------------------|
C|---------------------------------------------------|
G|---7-----------------------------------------------|
C|---------------------------------------------------|

Gtr. 2
D|---------------------------------------------------|
A|---------------------------------------------------|
F|---------------------------------------------------|
C|---------------------------------------------------|
G|---------------------------------------------------|
C|---0-2-2-2-0-0-0-2-2-2-0-0-0-2-2-3-----------------|
  PM.................................
 
D|---------------------------------------------------|
A|---------------------------------------------------|
F|---------------------------------------------------|
C|---------------------------------------------------|
G|---------------------------------------------------|
C|---0-2-2-2-0-0-0-2-2-2-0-0-0-2-2-3-----------------|
  PM.................................

Gtr. 1
D|---------------------------------------------------|
A|---------------------------------------------------|
F|---------------------------------------------------|
C|---------------------------------------------------|
G|----------10--------------------------9------------|
C|---------------------------------------------------|

Gtr. 2
D|-------------------------------------------------------------|
A|-------------------------------------------------------------|
F|-------------------------------------------------------------|
C|-------------------------------------------------------------|
G|-------------------------------------------------------------|
C|---0-2-2-2-0-0-0-2-2-2-0-0-0-2-2-3----0-2-2-2-0-0-0-2-2-2----|
   PM...............................

Gtr. 2
D|-------------------------------------------------------------------|
A|-------------------------------------------------------------------|
F|-------------------------------------------------------------------|
C|-------------------------------------------------------------------|
G|--0---2-2-2-0-0---2-2-2-0-0---3-3--0---2-2-2-0-0---2-2-2-0-0-2-2-3-|
C|--0---2-2-2-0-0---2-2-2-0-0---3-3--0---2-2-2-0-0---2-2-2-0-0-2-2-3-|

Gtr. 2
D|----------------------------------------|
A|----------------------------------------|
F|----------------------------------------|
C|----------------------------------------|
G|--0---2-2-2-0-0---2-2-2-0-0---3----0----|
C|--0---2-2-2-0-0---2-2-2-0-0---3----0----|

Gtr. 2
D|-------------------------------------------------------------------|
A|-------------------------------------------------------------------|
F|-------------------------------------------------------------------|
C|-------------------------------------------------------------------|
G|--0---2-2-2-0-0---2-2-2-0-0---3-3--0---2-2-2-0-0---2-2-2-0-0-2-2-3-|
C|--0---2-2-2-0-0---2-2-2-0-0---3-3--0---2-2-2-0-0---2-2-2-0-0-2-2-3-|

Gtr. 2
D|----------------------------------------------------------------|
A|----------------------------------------------------------------|
F|----------------------------------------------------------------|
C|----------------------------------------------------------------|
G|--0---2-2-2-0-0---2-2-2-0-0-0-3----0---2-2-2-0-0-0-2-2-2-0-0----|
C|--0---2-2-2-0-0---2-2-2-0-0-0-3----0---2-2-2-0-0-0-2-2-2-0-0----|
                                  PM...........................
Gtr. 2
D|----------------------------------------|
A|---5--x-5--x-5---x-5--x-5--x-5----------|
F|----------------------------------------|
C|----------------------------------------|
G|----------------------------------------|
C|----------------------------------------|  x2

D|----------------------------------------|
A|---5-----x-5-----x-5-----x-5------------|
F|----------------------------------------|
C|----------------------------------------|
G|----------------------------------------|
C|----------------------------------------|  x2

D|----------------------------------------|
A|---5--x-5--x-5---x-5--x-5----5-----5----|
F|----------------------------------------|
C|----------------------------------------|
G|----------------------------------------|
C|----------------------------------------|

Gtr. 2
D|------------------------------------------------------------------|
A|------------------------------------------------------------------|
F|------------------------------------------------------------------|
C|--2---2---2-2----2---2-2-2-2---5---5---5-5----5---5-5-5-5-5-------|
G|--2---2---2-2----2---2-2-2-2---5---5---5-5----5---5-5-5-5-5-------|
C|--2---2---2-2----2---2-2-2-2---5---5---5-5----5---5-5-5-5-5-------|

D|------------------------------------------------------------------|
A|--3---3---3-3----3---3-3-3-3--------------------------------------|
F|--2---2---2-2----2---2-2-2-2--------------------------------------|
C|--0---0---0-0----0---0-0-0-0---3---3---3-3----2-2-2-2---0---------|
G|--0---0---0-0----0---0-0-0-0---3---3---3-3----2-2-2-2---0---------|
C|--0---0---0-0----0---0-0-0-0---3---3---3-3----2-2-2-2---0---------|

Gtr. 2
D|------------------------------------------------------------------|
A|------------------------------------------------------------------|
F|------------------------------------------------------------------|
C|--2---2---2-2----2---2-2-2-2---5---5---5-5----5---5-5-5-5-5-------|
G|--2---2---2-2----2---2-2-2-2---5---5---5-5----5---5-5-5-5-5-------|
C|--2---2---2-2----2---2-2-2-2---5---5---5-5----5---5-5-5-5-5-------|

D|------------------------------------------|-||--------------|
A|--3---3---3-3----3---3-3-3-3------------.-|-||--------------|
F|--2---2---2-2----2---2-2-2-2--------------|-||--------------|
C|--0---0---0-0----0---0-0-0-0---5--------.-|-||--5-----------|
G|--0---0---0-0----0---0-0-0-0---3----------|-||--3-----------|
C|--0---0---0-0----0---0-0-0-0---3----------|-||--3---3----3--| x2
                                                    PM......


Solo:
D|----0-----0-----0-----0---------0---------------------|
A|-----------------------------------------3-0----------|
F|-3-----3-----3-----3------3/4-------4--------0--------|
C|------------------------------------------------------|
G|------------------------------------------------------|
C|------------------------------------------------------|

D|-0---0---0-0----0--0-0-0-0-0----0---0---0-0----0--0-0-0-0-0-------|
A|-5---5---5-5----5--5-5-5-5-5----8---8---8-8----8--8-8-8-8-8-------|
F|------------------------------------------------------------------|
C|------------------------------------------------------------------|
G|------------------------------------------------------------------|
C|------------------------------------------------------------------|

D|--0----0----0--0-----0---0--0--0--0--0----|
A|-11---11---11-11----11--11-11-11-11-11----|
F|------------------------------------------|
C|------------------------------------------|
G|------------------------------------------|
C|------------------------------------------|

D|--------12--------------------------------------------------------|
A|--15^-----15-12-15-12--12-----------------------------------------|
F|-FULL----------------15--15-14-15-14-12--12-14-12~~~~~~~~~~~------|
C|---------------------------------------14-------------------------|
G|------------------------------------------------------------------|
C|------------------------------------------------------------------|

D|--15^-------15^----12----------------0----------15-------------0--|
A|-FULL------1 1/2-----15--12-15-12---------15-17-----17^~~~~~~~----|
F|---------------------------------15-----16------------------------|
C|------------------------------------------------------------------|
G|------------------------------------------------------------------|
C|------------------------------------------------------------------|

D|----15-----17----15----17-------15-----17-----15-----15----15---22^|
A|/19---19-----19----19----19--19----19----/17----17-----17----17----|
F|-------------------------------------------------------------------|
C|-------------------------------------------------------------------|
G|-------------------------------------------------------------------|
C|-------------------------------------------------------------------|

Well you should be able to figure it out from there its kinda easy yet really cool. Enjoy! 
Аккорд CАккорд A-D

Godsmack — Straight Out Of Line

 GODSMACK - STRAIGHT OUTTA LINE

CGCFAD TUNING

intro
|----------------------------------|
|----------------------------------|
|----------------------------------|
|----------------------------------|
|--7~/--10~/-9~--12~-/7~---10~-9~--|
|----------------------------------|

|------------------------------|
|------------------------------|
|------------------------------|   repeat 2x, then pickslide on C+G,
|--0--2-2-2---0--2-2-2---0-3---|   then repeat 2 more times
|--0--2-2-2---0--2-2-2---0-3---|
|--0--2-2-2---0--2-2-2---0-3---|

verse
|------------------------|
|--5-x-5-5-x--5-5-x-x-5--| listen to song to figure out how many times to repeat
|------------------------|
|------------------------|
|------------------------|
|------------------------|

chorus
|----------------------------------------|
|---------------33-3---------------------|
|---------------22-2---------------------|  i dunno how many times 
|--2-2--5-5-55--00-0--0--3-3--5--2--0----|  to strum them, listen to the song.
|--2-2--5-5-55--00-0--0--3-3--5--2--0----|
|--2-2--5-5-55--00-0--0--3-3--5--2--0----|


thats it, listen to the song to figure out the order and timming,
 and i will have the solo tabbed out sooner or later 

Godsmack — Straight Out Of Line

 godsmack - straight out of line


  b = Bend String Down
  h = Hammer Down/On
 ( )= Land On That Note Without Striking
  p = Pull Off
  / = Slide Up
   = Slide Down
  ~ = Let Note Ring

Intro     Maybe a little string bend
F:-------------------------------------------------------|
C:-1--h3--3-b3p--(1)-1-1--h3--1-b1p--(1)-1-1--h3--4-(1)--|
G:-------------------------------------------------------|
C:-------------------------------------------------------|

Intro A
Intro     Maybe a little string bend
F:-------------------------------------------------------|
C:-1--h3--3-b3p--(1)-1-1--h3--3-b3p--(1)-1-1--h3--4-(1)--|
G:-------------------------------------------------------|
C:-------------------------------------------------------|
 
The little break part
F:---------------------------------------------------|
C:--------------------------------------------1--4-4-|
G:---------------------------------------------------|
C:---------------------------------------------------|

Then back to the Intro A
F:-------------------------------------------------------|
C:-1--h3--3-b3p--(1)-1-1--h3--3-b3p--(1)-1-1--h3--4-(1)--|
G:-------------------------------------------------------|
C:-------------------------------------------------------|

Now the heavy opening.
Part B  1X
F:---------------------------------------------|
C:---------------------------------------------|
G:---------------------------------------------|
C:-0--0--2--2-2--0--0--2--2--0--3--------------|

Part C 2X  There is a variation below
F:---------------------------------------------|
C:---------------------------------------------|
G:---------------------------------------------|
C:-0--0--2-2--0--0--2-2--0-2-3-----------------|

Then the ring
F:---------------------------------------------|
C:--1~~~~~~~~~~~-------------------------------|
G:---------------------------------------------|
C:---------------------------------------------|

Then again
Part B 1X
Part C 2X
       A variation of Part C like this:
F:---------------------------------------------|
C:---------------------------------------------|
G:---------------------------------------------|
C:-0--0--2-2--0--0--2-2--0-2-3-0---------------|

F:---------------------------------------------|
C:---------------------------------------------|
G:---------------------------------------------|
C:-0---h2--2--b2--(0)-0-0---h2--2--b2--(0)-0-0-|


Anyway For the verses just go back to:

Intro A

---------------------------------------------------------
Then the Chorus  (Simple Version)
Part D
F:-------------------------------------------------------|
C:---------------------------1--1--1----1-----4--4--4-/-|
G:-------------------------------------------------------|
C:-3--3--1-3---34--4--3-4---4----------------------------|

Then
Part E
F:-------------------------------------------------------|
C:---------------------------1--1----1---1-------4~~~~~~-|
G:---------------------------------4---------------------|
C:-2--2--0-2---24--4--3-4---4----------------------------|

---------------------------------------------------------
---------------------------------------------------------
Or the Chorus  (More really going on Version)-

F:-------------------------------------------------------|
C:-------------------------------------------------------|
G:-------------------------------------------------------|
C:-2--2--0-2---2-2-(0)-0-0-------------------------------|

F:-------------------------------------------------------|
C:-------------------------------------------------------|
G:-------------------------------------------------------|
C:--------------4--4--3-4---4-4-4P3-3--------------------|

F:-------------------------------------------------------|
C:--1--1--1-1-----1----4--4-4---4-4-4-h6p(4)-4-4--------|
G:-------------------------------------------------------|
C:-------------------------------------------------------| 
Аккорд AАккорд BАккорд CАккорд DАккорд E