Портал для гитаристов
gtars.ru

Godsmack — Sweet Leaf

 song:sweet leaf
artist:godsmack
album:nativity in black(tribute to black sabbath)
tab by:leander m.

tune dorp C (D A F C G C)

Intro/stanza
D|--------------------|
A|--------------------|
F|--------------------|
C|--2-2-x-7-5--5-5-7--|(4x)
G|--2-2-x-7-5--5-5-7--|
C|--2-2-x-7-5--5-5-7--|

refrain:
D|------------------------------------||----------------|
A|------------------------------------||----------------|
F|------------------------------------||----------------|
C|--2~~--0-5--9/--2-------------------||----------------|
G|--2~~--0-5--9/--2--2-2-2-2-2-2-2-2--||--3-2-2--3-2-2--|
c|--2~~--0-5--9/--2--2-2-2-2-2-2-2-2--||--3-2-2--3-2-2--|
		     . . . . . . . .	
(stanza)
(refrain)

adlib:
guitar I
D|-----------------------|    -----------|
A|-----------------------|    -----------|
F|-----------------------|    -----------|
C|--5~~-7~~--5-7-7pause--|(4x)--5-7-7~~--|
G|--5~~-7~~--5-7-7pause--|    --5-7-7~~--|
C|--5~~-7~~--5-7-7pause--|    --5-7-7~~--|

guitar II
D|---------------     ---------------	  ---------------|
A|---------------     ---------------	  ---------------|
F|---------------     ---------------	  --5-6-5h6p5----|(16x)
C|---------------(8x) ---------------(8x) ------------6--|
G|--2-3-2h3p2----     --4-5-4h5p4----	  ---------------|
C|------------5--     ------------7--	  ---------------|

D|------------------------------|
A|------------------------------|
F|------------------------------|
C|--5~~-------------------------|
G|--5~~-5-4-4--5-4-4--5~~-x--0--|
C|--5~~-5-4-4--5-4-4--5~~-x--0--|

intro riff
stanza
refrain
intro riff

finale:(fading)
D|-------------------------------------------------------------------------|
A|-------------------------------------------------------------------------|
F|-------------------------------------------------------------------------|
C|-------------------------------------------------------------------------|
G|--777777....55555....../7777777/....../10-10-10-10-10.....-777777...--|
C|-------------------------------------------------------------------------|

				End

tab by:leander_85@yahoo.com
	09193216020(4-phil. only)
legend:
h - hammer on 
      p - pull off 
      b - bend string up
      r - release bend
      / - slide up
       - slide down
      v - vibrato
      t - right hand tap
      x - let ring
      . - palm mute 
Аккорд CАккорд DАккорд AАккорд FАккорд G

Godsmack — Sweet Leaf

 Godsmack “Sweet Leaf” DADGBE tuning
tabs by haunted
|---------------------|
|---------------------|
|---------------------| x3 times
|---------------------|
|-2-2--7-6-5--5--5-7-|
|-2-2--7-6-5--5--5-7-|

Pause

|---------------------|
|---------------------|
|---------------------| x8 times
|---------------------|
|-2-2--7-6-5--5--5-7-|
|-2-2--7-6-5--5--5-7-|

|---------------------------------|
|---------------------------------|
|---------------------------------| x2 times
|-2---0---5---9--2---2-2-2-2-2-2-|
|-2---0---5---9--2---2-2-2-2-2-2-|
|-2---0---5---9--2---2-2-2-2-2-2-|
                    pm. . . . . .

|---------------------|------------|
|---------------------|------------|
|---------------------|------------| x4 times
|---------------------|------------|
|-2-2--7-6-5--5--5-7-|-2-2--7-6-5-|
|-2-2--7-6-5--5--5-7-|-2-2--7-6-5-|

Pause

|---------------------|------------|
|---------------------|------------|
|---------------------|------------| x8 times
|---------------------|------------|
|-2-2--7-6-5--5--5-7-|-2-2--7-6-5-|
|-2-2--7-6-5--5--5-7-|-2-2--7-6-5-|

|---------------------------------|
|---------------------------------|
|---------------------------------| x1 times
|-2---0---5---9--2---2-2-2-2-2-2-|
|-2---0---5---9--2---2-2-2-2-2-2-|
|-2---0---5---9--2---2-2-2-2-2-2-|
                    pm. . . . . .

|----------------------|
|----------------------|
|----------------------| x1 times
|-2---0---5---9--2----|
|-2---0---5---9--2----|
|-2---0---5---9--2----|


|---------------------------------|
|---------------------------------|
|---------------------------------| x1 times
|-2---0---5---9--2---2-2-2-2-2-2-|
|-2---0---5---9--2---2-2-2-2-2-2-|
|-2---0---5---9--2---2-2-2-2-2-2-|
                    pm. . . . . .

|--------------------------------------|
|--------------------------------------|
|--------------------------------------| x1 times
|-2---0---5---9--2---2-2-2--2-2-2--2--|
|-2---0---5---9--2---2-2-2--2-2-2--2--|
|-2---0---5---9--2---2-2-2--2-2-2--2--|
                    pm. . .  . . .


                   |---------------|
                   |---------------|
Play behind rythem |--5-6-5h6p5----|
Solo pice          |------------6--|
X16 times          |---------------|
                   |---------------|



|------------------|
|------------------|
|------------------| x1 times
|-2----4------/6-6-|
|-2----4------/6-6-|
|-2----4------/6-6-|

|-------------------------------------------------------------|
|-------------------------------------------------------------|
|-------------------------------------------------------------| x1 times
|4-6-6---4-6-6---4-6-6--4-6-6--4-6-6-6-6--4---4-4-4--4-4-4--4-|
|4-6-6---4-6-6---4-6-6--4-6-6--4-6-6-6-6--4---4-4-4--4-4-4--4-|
|4-6-6---4-6-6---4-6-6--4-6-6--4-6-6-6-6--4---4-4-4--4-4-4--4-|
                                            pm. . .  . . .
|---------------------|
|---------------------|
|---------------------| x4 times
|---------------------|
|-2-2--7-6-5--5--5-7-|
|-2-2--7-6-5--5--5-7-|

|---------------------|
|---------------------|
|---------------------| x8 times
|---------------------|
|-2-2--7-6-5--5--5-7-|
|-2-2--7-6-5--5--5-7-|

|---------------------------------|
|---------------------------------|
|---------------------------------| x1 times
|-2---0---5---9--2---2-2-2-2-2-2-|
|-2---0---5---9--2---2-2-2-2-2-2-|
|-2---0---5---9--2---2-2-2-2-2-2-|
                    pm. . . . . .

|----------------------|
|----------------------|
|----------------------| x1 times
|-2---0---5---9--2----|
|-2---0---5---9--2----|
|-2---0---5---9--2----|





|---------------------------------|
|---------------------------------|
|---------------------------------| x1 times
|-2---0---5---9--2---2-2-2-2-2-2-|
|-2---0---5---9--2---2-2-2-2-2-2-|
|-2---0---5---9--2---2-2-2-2-2-2-|
                    pm. . . . . .

|--------------------------------------|
|--------------------------------------|
|--------------------------------------| x1 times
|-2---0---5---9--2---2-2-2--2-2-2--2--|
|-2---0---5---9--2---2-2-2--2-2-2--2--|
|-2---0---5---9--2---2-2-2--2-2-2--2--|
                    pm. . .  . . .

|---------------------|
|---------------------|
|---------------------| x20 times
|---------------------|
|-2-2--7-6-5--5--5-7-|
|-2-2--7-6-5--5--5-7-|

|-----------------------|-----------------------|
|-----------------------|-----------------------|
|-9~~----------------12~|-9~~-----------------7~|play behind rythem
|-----------------------|-----------------------| x3 times
|-7~~----------------10~|-7~~-----------------5~|
|-----------------------|-----------------------|