Портал для гитаристов
gtars.ru

Godsmack — Time Bomb

 	             SONG: Time Bomb
          	     BAND: Godsmack
          	    ALBUM: Godsmack
           TRANSCRIBED BY: Michael Johnson  (oricle_guitar@yahoo.com)
                     Date: 03/21/01
           
          
          	TUNING: Drop D (D-A-D-G-B-E)
          
          
               Intro:
          
              ------------------------------------------
              ------------------------------------------
              ------------------------------------------
              ---0-0-0-0-3-0-0-0-0-3-0-0-5-0-6-0--------
              ------------------------------------------
              ------------------------------------------
          
              Verse:
          
              ---------------------------------------------
              ---------------------------------------------
              -5/7--7--7-7-7-7--7-8-8----5/7--7--7-7-7-7--
              -5/7--7--7-7-7-7--7-8-8----5/7--7--7-7-7-7--
              -3/5--5--5-5-5-5--5-6-6----3/5--5--5-5-5-5--
              ---------------------------------------------
          
          
              --------------------------------------------------------------------------
              --------------------------------------------------------------------------
              ---5/7--7--7-7-7-7--7/10--10---5/7--7--7-7-7--7-----------3---------3---
              ---5/7--7--7-7-7-7--7/10--10---5/7--7--7-7-7--7-----0--0--1----0----1---
              ---3/5--5--5-5-5-5--5/-8---8---3/5--5--5-5-5--5-------------------------
              --------------------------------------------------------------------------
          
              Pre-Chorus:
          
              --------------------------
              --------------------------
              --------------------------
              -5/7-7-7-x-x-5/7-7-8-5--5-
              -5/7-7-7-x-x-5/7-7-8-5--5-
              -5/7-7-7-x-x-5/7-7-8-5--5-
          
          
               Chorus:
          
              ----------------------------------------------------------------------
              ----------------------------------------------------------------------
              ----------------------------------------------------------------------
              ---0-0-0-0-3-0-0-0-0-3-0-0-5-0-6-0--0-0-0-0-3-0-0-0-0-0-0-0-0-0-0-0---
              ----------------------------------------------------------------------
              ----------------------------------------------------------------------
          
              Bridge:
          
              ------------------------------------------------------------------
              ------------------------------------------------------------------
              -5/7--7-7--5/7--7-7--5/7--7--10-10--5-5-5----3---3----2----5-----
              -5/7--7-7--5/7--7-7--5/7--7--10-10--5-5-5----3---3----2----5-----
              -3/5--5-5--3/5--5-5--3/5--5---8--8--3-3-3----1---1----0----3-----
              -----------------------------------------------------3------------
                                                            ------------------Last Time only
              Outro:
          
              ---------------------------------------------------------------------------
              ---------------------------------------------------------------------------
              -5/7--7-5/7--7-5/7--7-5/7--7-5/7--7-5/7--7-5/7--7-5/7--7-5/7--7-5/7--7-5-5-
              -5/7--7-5/7--7-5/7--7-5/7--7-5/7--7-5/7--7-5/7--7-5/7--7-5/7--7-5/7--7-5-5-
              -3/5--5-3/5--5-3/5--5-3/5--5-3/5--5-3/5--5-3/5--5-3/5--5-3/5--5-3/5--5-3-3-
              ---------------------------------------------------------------------------
          
          
          
              ---------------
              ---------------
              ---5--7--7-----
              ---5--7--7-----
              ---3--5--5-----
              ---------------
               Play this riff however many times needed 
Аккорд DАккорд B-E

Godsmack — Time Bomb

 -------------------------------------------------------------------------------
			     Time Bomb - Godsmack
-------------------------------------------------------------------------------
Tabbed by: Alex Derus

Email: alexsohungy@rogers.com

Notes: First Tab Ever, did it all by ear, so it is almost 100% accurate,
       listen to the song once or twice to figure out the strumming
       patterns. Great Song, Have fun!

Tuning: Drop C (C G C F A D)
(You can use drop D, D A D G B E, alternately, just move all notes two frets down)

0:15
D|---------------------------------------------------------------------------|
A|---------------------------------------------------------------------------|
F|---------------------------------------------------------------------------|
C|--------7/9-9-9-9-9-9-9/10-107-7/9-9-9-9-9-9-9---------------------------|
G|--------5/7-7-7-7-7-7-7/ 8-8 5-5/7-7-7-7-7-7-7---------------------------|
C|---------------------------------------------------------------------------|

D|---------------------------------------------------------------------------|
A|---------------------------------------------------------------------------|
F|---------------------------------------------------------------------------|
C|--------7/9-9-9-9-9-9-9/127-7/9-9-9-9-9-9-9------------------------------|
G|--------5/7-7-7-7-7-7-7/105-5/7-7-7-7-7-7-7------------------------------|
C|---------------------------------------------------------------------------|

D|---------------------------------------------------------------------------|
A|---------------------------------------------------------------------------|
F|---------------------------------------------------------------------------|
C|--------7/9-9-9-9-9-9-9/10-107-7/9-9-9-9-9-9-9---------------------------|
G|--------5/7-7-7-7-7-7-7/ 8-8 5-5/7-7-7-7-7-7-7---------------------------|
C|---------------------------------------------------------------------------|

D|---------------------------------------------------------------------------|
A|---------------------------------------------------------------------------|
F|---------------------------------------------------------------------------|
C|--------7/9-9-9-9-9-9-9/127-7/9-9-9-9-9-9-9------------------------------|
G|--------5/7-7-7-7-7-7-7/105-5/7-7-7-7-7-7-7------------------------------|
C|---------------------------------------------------------------------------|

1:07
D|---------------------------------------------------------------------------|
A|---------------------------------------------------------------------------|
F|---------------------------------------------------------------------------|
C|-7-9-9-x-x-7-9-9-10-7-7-9-9-x-x-7-9-9-10-7-7-9-9-x-x-7-9-9-10-7-7-9-9-x-x--|
G|-7-9-9-x-x-7-9-9-10-7-7-9-9-x-x-7-9-9-10-7-7-9-9-x-x-7-9-9-10-7-7-9-9-x-x--|
C|-7-9-9-x-x-7-9-9-10-7-7-9-9-x-x-7-9-9-10-7-7-9-9-x-x-7-9-9-10-7-7-9-9-x-x--|

D|---------------------------------------------------------------------------|
A|---------------------------------------------------------------------------|
F|---------------------------------------------------------------------------|
C|-7-9-9-10-7---------------------------------------------------------------|
G|-7-9-9-10-7---------------------------------------------------------------|
C|-7-9-9-10-7---------------------------------------------------------------|

1:28
D|---------------------------------------------------------------------------|
A|---------------------------------------------------------------------------|
F|---------------------------------------------------------------------------|
C|--------7/9-9-9-9-9-9-9/10-107-7/9-9-9-9-9-9-9---------------------------|
G|--------5/7-7-7-7-7-7-7/ 8-8 5-5/7-7-7-7-7-7-7---------------------------|
C|---------------------------------------------------------------------------|

D|---------------------------------------------------------------------------|
A|---------------------------------------------------------------------------|
F|---------------------------------------------------------------------------|
C|--------7/9-9-9-9-9-9-9/127-7/9-9-9-9-9-9-9------------------------------|
G|--------5/7-7-7-7-7-7-7/105-5/7-7-7-7-7-7-7------------------------------|
C|---------------------------------------------------------------------------|

D|---------------------------------------------------------------------------|
A|---------------------------------------------------------------------------|
F|---------------------------------------------------------------------------|
C|--------7/9-9-9-9-9-9-9/10-107-7/9-9-9-9-9-9-9---------------------------|
G|--------5/7-7-7-7-7-7-7/ 8-8 5-5/7-7-7-7-7-7-7---------------------------|
C|---------------------------------------------------------------------------|

D|---------------------------------------------------------------------------|
A|---------------------------------------------------------------------------|
F|---------------------------------------------------------------------------|
C|--------7/9-9-9-9-9-9-9/127-7/9-9-9-9-9-9-9------------------------------|
G|--------5/7-7-7-7-7-7-7/105-5/7-7-7-7-7-7-7------------------------------|
C|---------------------------------------------------------------------------|

D|---------------------------------------------------------------------------|
A|---------------------------------------------------------------------------|
F|---------------------------------------------------------------------------|
C|--------7/9-9-9-9-9-9-9/10-107-7/9-9-9-9-9-9-9---------------------------|
G|--------5/7-7-7-7-7-7-7/ 8-8 5-5/7-7-7-7-7-7-7---------------------------|
C|---------------------------------------------------------------------------|

D|---------------------------------------------------------------------------|
A|---------------------------------------------------------------------------|
F|---------------------------------------------------------------------------|
C|--------7/9-9-9-9-9-9-9/127-7/9-9-9-9-9-9-9------------------------------|
G|--------5/7-7-7-7-7-7-7/105-5/7-7-7-7-7-7-7------------------------------|
C|---------------------------------------------------------------------------|

1:59
D|---------------------------------------------------------------------------|
A|---------------------------------------------------------------------------|
F|---------------------------------------------------------------------------|
C|-7-9-9-x-x-7-9-9-10-7-7-9-9-x-x-7-9-9-10-7-7-9-9-x-x-7-9-9-10-7-7-9-9-x-x--|
G|-7-9-9-x-x-7-9-9-10-7-7-9-9-x-x-7-9-9-10-7-7-9-9-x-x-7-9-9-10-7-7-9-9-x-x--|
C|-7-9-9-x-x-7-9-9-10-7-7-9-9-x-x-7-9-9-10-7-7-9-9-x-x-7-9-9-10-7-7-9-9-x-x--|

D|---------------------------------------------------------------------------|
A|---------------------------------------------------------------------------|
F|---------------------------------------------------------------------------|
C|-7-9-9-10-7---------------------------------------------------------------|
G|-7-9-9-10-7---------------------------------------------------------------|
C|-7-9-9-10-7---------------------------------------------------------------|

2:36
D|---------------------------------------------------------------------------|
A|---------------------------------------------------------------------------|
F|---------------------------------------------------------------------------|
C|--7/9-97/9-97/9-9/127-7/9-97/9-97/9-9/12-----------------------------|
G|--5/7-75/7-75/7-7/105-5/7-75/7-75/7-7/10-----------------------------|
C|---------------------------------------------------------------------------|

D|---------------------------------------------------------------------------|
A|---------------------------------------------------------------------------|
F|---------------------------------------------------------------------------|
C|--7-7/9-97/9-97/9-9/127-7/9-97/9-97/9-9/12---------------------------|
G|--5-5/7-75/7-75/7-7/105-5/7-75/7-75/7-7/10---------------------------|
C|---------------------------------------------------------------------------|

D|---------------------------------------------------------------------------|
A|---------------------------------------------------------------------------|
F|---------------------------------------------------------------------------|
C|--5-54-7-7/9-97/9-97/9-9/127-7/9-97/9-97/9-9/12---------------------|
G|--3-32-5-5/7-75/7-75/7-7/105-5/7-75/7-75/7-7/10---------------------|
C|---------------------------------------------------------------------------|

D|---------------------------------------------------------------------------|
A|---------------------------------------------------------------------------|
F|---------------------------------------------------------------------------|
C|--7-7/9-97/9-97/9-9/127-7/9-97/9-97/9-9/12---------------------------|
G|--5-5/7-75/7-75/7-7/105-5/7-75/7-75/7-7/10---------------------------|
C|---------------------------------------------------------------------------|

D|---------------------------------------------------------------------------|
A|---------------------------------------------------------------------------|
F|---------------------------------------------------------------------------|
C|--5-54/7------------------------------------------------------------------|
G|--3-32/5------------------------------------------------------------------|
C|---------------------------------------------------------------------------|

3:13
D|---------------------------------------------------------------------------|
A|---------------------------------------------------------------------------|
F|---------------------------------------------------------------------------|
C|--7/9-97/9-97/9-9/127-7/9-97/9-97/9-9/12-----------------------------|
G|--5/7-75/7-75/7-7/105-5/7-75/7-75/7-7/10-----------------------------|
C|---------------------------------------------------------------------------|

D|---------------------------------------------------------------------------|
A|---------------------------------------------------------------------------|
F|---------------------------------------------------------------------------|
C|--7-7/9-97/9-97/9-9/127-7/9-97/9-97/9-9/12---------------------------|
G|--5-5/7-75/7-75/7-7/105-5/7-75/7-75/7-7/10---------------------------|
C|---------------------------------------------------------------------------|

3:23
D|---------------------------------------------------------------------------|
A|---------------------------------------------------------------------------|
F|---------------------------------------------------------------------------|
C|--7/9-97/9-9---(Repeat This Pattern Until End Of The Song)---------------|
G|--5/7-75/7-7-------------------------------------------------------------|
C|---------------------------------------------------------------------------|

| /  slide up
|   slide down
| h  hammer-on
| p  pull-off
| ~  vibrato
| +  harmonic
| x  Mute note
=============================================================================== 
Аккорд CАккорд GАккорд FАккорд AАккорд DАккорд B

Godsmack — Time Bomb

 Bass Tablature

Band: Godsmack
Song: Time Bomb
Track: 04
Album: Self Titled
Tabbed By: Tyler Nance (killpeople@netzero.net)
This song was tabbed on 11/03/2000.

Tuning: Dropped-D (D A D G)

Use your fingers, not a pick on this song.
Use clean tone, no effects.

Intro/Interludes
Repeat Several Times
G|--------------
D|--------------
A|--------------
D|--0h0h0h0h0h0-

Verse
Repeat Several Times
G|--------------------------------------
D|--------------------------------------
A|--------------------------------------
D|--3-3-33-4-333333p-3-3-33-5-333333p-

Chorus
G|---------------------
D|---------------------
A|---------------------
D|--5-5-5h7-7p77-7h7h7-

Verse 2

Chorus 2

Interlude 2

Verse 3

Chorus 3

Interlude 3

Pre Outro
G|----------------------------------------------
D|----------------------------------------------
A|----------------------------------------------
D|--3h3h4h3h3h4h3h3h5-5h3h3h4h3h3h4h3h3h5-5-2-1-

Interlude 4

Then Play This A Few Times
G|----------------------
D|----------------------
A|----------------------
D|--3h3h4h3h3h4h3h3-5-5-

Outro
Repeat Several Times
G|------------------------------------------------------
D|------------------------------------------------------
A|------------------------------------------------------
D|--3h3h3h3h3h3h3h3h3h3h3h3h3h3h-3h2h3h2h3h2h3h2h3h2h3h2h3h2h3

Tablature Explaination:
 ~ = Hold note
 h = Hammer on, quick progression
 p = Pause, do not let not ring
 / = Slide up fretboard
  = Slide down fretboard
 ( ) = These are use to show notes to slide up or down to
 [ ] = only play the note(s) encased by these the first time you play the line 
 (**) = Play The Harmonic Of The Notes Between These, In other words don't press the frets hard, just lightly touch the strings above the correct frets

If you hate trendy stuff, check out my website http://www.crosswinds.net/~rd5k
 
Аккорд DАккорд AАккорд G