Портал для гитаристов
gtars.ru

Godsmack — Vampires

 i'm sorry guys...i submitted the bass tabs instead of the guitar tabs...
here's the guitar part...pretty much the same as the bass part...again i apologize..

Godsmack
Vampires
Tuning - CGCFAD
1-17-01
Tabbed By: Emilio (emiliograveran@hotmail.com)

This is my first tabbed song so take it easy on me.  I take all comments at 
emiliograveran@hotmail.com.  thanks.

KEY:
/ - 	slide down
 - 	slide up
(2) - 	let note (or chord) ring out
{2} - 	palm mute
9 - 	tremolo picking 
tr
S -	long slide
x -	muted string


C   -2-2---2/5-5---2/7-7---------------------8-8-8-888777775----------          
G   -2-2---2/5-5---2/7-7--three times...then-8-8-8-888777775---------- 
C   -2-2---2/5-5---2/7-7---------------------8-8-8-888777775----------
                      play this verse 3 times then to the next verse
 
C   -2-2---2/5-5---2/7-7---------------------(2)------------------------ 
G   -2-2---2/5-5---2/7-7---four times...then-(2)------------------------ 
C   -2-2---2/5-5---2/7-7---------------------(2)------------------------
         let notes ring out                  let chord ring out then next verse...

C   -13-----2-2--2/5-5---2/7-7---------------------8-8-8-888777775--- 
G   -13-----2-2--2/5-5---2/7-7--three times..then--8-8-8-888777775--- 
C   -13-----2-2--2/5-5---2/7-7---------------------8-8-8-888777775---
                             play this once then next 

C   -2-2--2/5-5--2/7-7--2-2--{2--2}--2/5-5---2/7-7---2-2---2/5-5--2/7-7- 
G   -2-2--2/5-5--2/7-7--2-2--{2--2}--2/5-5---2/7-7---2-2---2/5-5--2/7-7- 
C   -2-2--2/5-5--2/7-7--2-2--{2--2}--2/5-5---2/7-7---2-2---2/5-5--2/7-7-				                                     

C   -2-2-{2222}--2/5-5---2/5-5---2/5-5---2/5-5---(2)-------------------- 
G   -2-2-{2222}--2/5-5---2/5-5---2/5-5---2/5-5---(2)-------------------- 
C   -2-2-{2222}--2/5-5---2/5-5---2/5-5---2/5-5---(2)--------------------
          -PM-

C   -2-2--2-2h5-2h5-2--------------------------------------------------- 
G   -2-2--2-2h5-2h5-2---REST-------------------------------------------- 
C   -2-2--2-2h5-2h5-2---------------------------------------------------

C   -2-2--2-2h5-2h5-2-2--2-2-22--------------------2-2--2-2h5-2-2h5-2--- 
G   -2-2--2-2h5-2h5-2-2--2-2-22---seven times----- 2-2--2-2h5-2-2h5-2--- 
C   -2-2--2-2h5-2h5-2-2--2-2-22--------------------2-2--2-2h5-2-2h5-2---

C   -{2222222222222222222}--2--{0-0}--7--{0}--9--{0-0-0}--4-3--{0-0}---- 
G   -{2222222222222222222}--2--{0-0}--7--{0}--9--{0-0-0}--4-3--{0-0}---- 
C   -{2222222222222222222}--2--{0-0}--7--{0}--9--{0-0-0}--4-3--{0-0}----
      ---palm mute-------       -----------------play this 3 times------

C   -2-2--2-2--2-2--2-2--22---2--{0-0}--7--{0}--9--{0-0-0}--4-3--{0-0}-- 
G   -2-2--2-2--2-2--2-2--22---2--{0-0}--7--{0}--9--{0-0-0}--4-3--{0-0}-- 
C   -2-2--2-2--2-2--2-2--22---2--{0-0}--7--{0}--9--{0-0-0}--4-3--{0-0}--
                                 ----play this 3 times------------------

C   -2-2--2-2--2-2--2-2--22---2--{0-0}--7--{0}--9--{0-0-0}--4-3--{0-0}-- 
G   -2-2--2-2--2-2--2-2--22---2--{0-0}--7--{0}--9--{0-0-0}--4-3--{0-0}-- 
C   -2-2--2-2--2-2--2-2--22---2--{0-0}--7--{0}--9--{0-0-0}--4-3--{0-0}--
                              --play this 3 times under the solo--------
                           --and replace {0-0} with 2-2 on 4th time-----

SOLO w/ wah pedal & tremolo picking

D   --------------------------------------------------------------------
A   --------------------------------------------------------------------
F   -9--12--15--18--18b--18b--19b--19b--20b--20b--21b21b21b----21------
C   --------------------------------------------------------------------
G   --------------------------------------------------------------------
C   --------------------------------------------------------------------

C   -22--2--{0-0}--7--{0}--9--{0-0-0}--22------------------------------- 
G   -22--2--{0-0}--7--{0}--9--{0-0-0}--22------------------------------- 
C   -22--2--{0-0}--7--{0}--9--{0-0-0}--22-------------------------------

C   -2--{0-0}--7--{0}--9--{0}--22--{0-0}-------------------------------- 
G   -2--{0-0}--7--{0}--9--{0}--22--{0-0}-------------------------------- 
C   -2--{0-0}--7--{0}--9--{0}--22--{0-0}--------------------------------

C   -2--{0-0}--7--{0}--9--{0-0-0}--22----------------------------------- 
G   -2--{0-0}--7--{0}--9--{0-0-0}--22----------------------------------- 
C   -2--{0-0}--7--{0}--9--{0-0-0}--22-----------------------------------

C   -2--{0-0}--7--{0}--9--{0}--22--------------------------------------- 
G   -2--{0-0}--7--{0}--9--{0}--22--------------------------------------- 
C   -2--{0-0}--7--{0}--9--{0}--22---------------------------------------

C   -{0-0}--22--{0-0}--22--{0-0}--2--{0-0-0}--(2)----------------------- 
G   -{0-0}--22--{0-0}--22--{0-0}--2--{0-0-0}--(2)----------------------- 
C   -{0-0}--22--{0-0}--22--{0-0}--2--{0-0-0}--(2)-----------------------

C   -13---2-2--2/5-5---2/7-7--------8-8-8-88877-S-2-2--2/5-5--2/7-7-- 
G   -13---2-2--2/5-5---2/7-7—3times-8-8-8-88877-S-2-2--2/5-5--2/7-7-- 
C   -13---2-2--2/5-5---2/7-7--------8-8-8-88877-S-2-2--2/5-5--2/7-7-- 

C   -2-2---2/5-5---2/7-7---------------------8-8-8-888777775---------- 
G   -2-2---2/5-5---2/7-7--three times..then--8-8-8-888777775--------- 
C   -2-2---2/5-5---2/7-7---------------------8-8-8-888777775----------

C   -2-2---2/5-5---2/7-7--------------------------8-8-8-888777775----- 
G   -2-2---2/5-5---2/7-7--three times..then stop--8-8-8-888777775---- 
C   -2-2---2/5-5---2/7-7--------------------------8-8-8-888777775-----

                                played under last 2 measures of rhythm
D   --------------------------------------------------------------------
A   -------------------------------------------------------------------- 
F   -9--9---9/12-12---9/14-14-------------------------------------------
C   -x--x---x-xx-xx---x-xx-xx------four times then stop-----------------
G   -7--7---7/10-10---7/12-12------------------------------------------- 
C   -------------------------------------------------------------------- 
Аккорд CАккорд GАккорд DАккорд AАккорд F

Godsmack — Vampires

 Godsmack
Vampires
Bass Tab
Tuning: CGCF

this is my first attempt at tabbing out a song for bass.  any comments, leave them at 
emiliograveran@mindspring.com.
thanks.

Riff 1
F  ---------------------------------------------------------
C  ---------------------------------------------------------
G  ---------------------------------------------------------
C  -2-2--2/5-5--2/7-7----3times-----8-8-8-8887777775------

Riff 2
F  ---------------------------------------------------------
C  ---------------------------------------------------------
G  ---------------------------------------------------------
C  -2-2--2/5-5--2/5-5--2/5-5--2/5-5-------------------------

Riff 3
F  ---------------------------------------------------------
C  ---------------------------------------------------------
G  ---------------------------------------------------------
C  -22-2-2h5-2h5-22-22-22----3-times-then-with-riff-4-------

Riff 4
F  ---------------------------------------------------------
C  ---------------------------------------------------------
G  ---------------------------------------------------------
C  -22-2-2h5-2h5-2--rest--22-2-2h5-2h5-22-22-22-----7-times-

Riff 5
F  ---------------------------------------------------------
C  ---------------------------------------------------------
G  ---------------------------------------------------------
C  -22-2-2h5-2h5-2--22222222222222222222--------------------

Riff 6
F  ---------------------------------------------------------
C  ---------------------------------------------------------
G  ---------------------------------------------------------
C  -2--0-0--3-2--8-9--0-0-0--4-3--22-22-22-22-2-2-----------

Riff 7
F  ---------------------------------------------------------
C  ---------------------------------------------------------
G  ---------------------------------------------------------
C  -2--0-0--3-2--8-9--0-0-0--22-----------------------------

Riff 8
F  ---------------------------------------------------------
C  ---------------------------------------------------------
G  ---------------------------------------------------------
C  -2--0-0--3-2--8-9--0--22--0-0----------------------------

Riff 9
F  ---------------------------------------------------------
C  ---------------------------------------------------------
G  ---------------------------------------------------------
C  -2--0-0--3-2--8-9--0-22-0-0-22-0-0-22-0-0-2-0-0-0--2-----

Riff 10
F  ---------------------------------------------------------
C  ---------------------------------------------------------
G  ---------------------------------------------------------
C  -2-2--2/5-5--2/7-7--3times---8-8-8-88877-------------

Riff 11 (Outro)
F  ---------------------------------------------------------
C  ---------------------------------------------------------
G  ---------------------------------------------------------
C  -2-2--2/5-5--2/7-7----3times-----8-8-8-8887777775------ 
Аккорд FАккорд CАккорд G

Godsmack — Vampires

 Song: Vampires
Artist: Godsmack
Album: Awake
Track: 9
Corrected by: Dave Rieger (korn@cbnnow.com) 
Originally tabbed by:Bryan Jarvinen (ibanezgsr200bass@yahoo.com)

This song's real easy to play but sounds pretty whack with distortion. This is 
my first tab but I'm pretty sure its perfect.I added a few missing riffs from 
the previous tab, and corrected all the ones here before.


Drop D-tuning

Guitars play through main riff first, then bass comes in a few seconds after 
drums



Riff 1/Main Riff

G|-----------------------------------------------------------------------------|
D|-----------------------------------------------------------------------------|
A|-----------------------------------------------------------------------------|
D|-0-0--0-3-3--3-5-5---0-0--0-3-3--3-5-5---0-0--0-3-3--3-5-5--6-6-6-666-55-5-5-|

Riff 2

G|-------------------------------------------------------------------------------|
D|-------------------------------------------------------------------------------|
A|-------------------------------------------------------------------------------|
D|-0-0--0-3-3--3-5-5---0-0--0-3-3--3-5-5---0-0--0-3-3--3-5-5---0-0--0-3-3--3-5-5-|


Riff 3

G|----------------------------|
D|----------------------------|
A|----------------------------|
D|-0h3--0h3--0h3--0h3---0-----|

                

Riff 4

G|--------------------------------------------------|
D|--------------------------------------------------|
A|--------------------------------------------------|
D|-0-0--00333-0-0-0-0--00---------------------------|

Riff 5

G|------------------------------------------------|
D|------------------------------------------------|
A|------------------------------------------------|
D|-3-000--5-00--6--000-33-00----------------------|


Riff 6

G|---------------------|
D|---------------------|
A|---------------------|
D|-33-33-33-33--3-3----|


Its pretty easy to figure out the order of it by listening to the song, you 
shouldnt have much trouble i dont think. E-mail any corrections, questions, 
comments, death threats, etc. to korn@cbnnow.com.