Портал для гитаристов
gtars.ru

Godsmack — Voodoo

 Band: Godsmack 
Song: Voodoo 
Tabed By: Jeff H (poo_poo_punk@hotmail.com)

I relized there was no tab for this song so i tabed it enjoy

Tuned down one step to D.

  Low to high: D G C F A D

Use one of the pickups more towards the neck of the guitar.

Riff 1: 
D------2-2/3-2--------------
A------2-2/3-2--------------
F---------------------------
C---------------------------
G---------------------------
D---------------------------


Riff 2:
D---------------------------
A---------------------------
F---------------------------
C--2---2-2-2-2-2-2-2--------
G--2---2-2-2-2-2-2-2--------
D--0---0-0-0-0-0-0-0--------
       P.M...(Gradually release)


Chorus Riff:                                         
D------------------------------------------------------------------
A------------------------------------------------------------------
F------------------------------------------------------------------
C--4---4-4-4-4---2---2---4-4---4-4-4---4-4-4-4---7---7---7-6/7-65-
G--4---4-4-4-4---2---2---4-4---4-4-4---4-4-4-4---7---7---7-6/7-65-
D--2---2-2-2-2---0---0---2-2---2-2-2---2-2-2-2---5---5---5-4/5-43-
  I'm not the . . . 
                                                 _________________
              Omit this stuff the first time -->| 
   ---------------------------------------------------------------
   ---------------------------------------------------------------
   ---------------------------------------------------------------
   4-4-4-4-4-4---2---2---4-4---4-4-4---4-4---4---7---7-76-6/7-65
   4-4-4-4-4-4---2---2---4-4---4-4-4---4-4---4---7---7-76-6/7-65
   2-2-2-2-2-2---0---0---2-2---2-2-2---2-2---2---5---5-54-4/5-43
   _____________________________________________________________

   -------------------------------------------------------------------
   -------------------------------------------------------------------
   -------------------------------------------------------------------
   -4---4-4-4-4---2---2---4-4---4-4-4---4-4-4-4---7---7---7---6/7-65-
   -4---4-4-4-4---2---2---4-4---4-4-4---4-4-4-4---7---7---7---6/7-65-
   -2---2-2-2-2---0---0---2-2---2-2-2---2-2-2-2---5---5---5---4/5-43-
   ___________________________________________
                                              |
   ---------------------------------------------------------------
   ---------------------------------------------------------------
   ---------------------------------------------------------------
   4-4-4-4-4-4---2---2---4-4---4-4-4---4-4---4---2---4-4----------
   4-4-4-4-4-4---2---2---4-4---4-4-4---4-4---4---2---4-4----------
   2-2-2-2-2-2---0---0---2-2---2-2-2---2-2---2---0---2-2----------

Bridge Riff:
D--------------------------------2-2/3-2--
A--------------------------------2-2/3-2--
F-----------------------------------------
C--2---2-2-2-2-2-2-2-2-2-2-2-2-2----------
G--2---2-2-2-2-2-2-2-2-2-2-2-2-2---------- (Last time just keep playing
D--0---0-0-0-0-0-0-0-0-0-0-0-0-0----------  D5 until the chorus)
       P.M...(Gradually release)


Drop-D Tuning

   Low to High: D A D G B E

Use the same pickup

Riff 1: 
E---------------------------
B---------5-5/6-5-----------
G---------4-4/5-4-----------
D---------------------------
A---------------------------
D---------------------------


Riff 2:
E---------------------------
B---------------------------
G---------------------------
D--0---0-0-0-0-0-0-0--------
A--0---0-0-0-0-0-0-0--------
D--0---0-0-0-0-0-0-0--------
       P.M...(Gradually release)


Chorus Riff:                                         
E------------------------------------------------------------------
B------------------------------------------------------------------
G------------------------------------------------------------------
D--2---2-2-2-2---0---0---2-2---2-2-2---2-2-2-2---5---5---5-4/5-43-
A--2---2-2-2-2---0---0---2-2---2-2-2---2-2-2-2---5---5---5-4/5-43-
D--2---2-2-2-2---0---0---2-2---2-2-2---2-2-2-2---5---5---5-4/5-43-
  I'm not the . . .
                                                 _________________
              Omit this stuff the first time -->| 
   ---------------------------------------------------------------
   ---------------------------------------------------------------
   ---------------------------------------------------------------
   2-2-2-2-2-2---0---0---2-2---2-2-2---2-2---2---5---5-54-4/5-43
   2-2-2-2-2-2---0---0---2-2---2-2-2---2-2---2---5---5-54-4/5-43
   2-2-2-2-2-2---0---0---2-2---2-2-2---2-2---2---5---5-54-4/5-43
   ___________________________________________________________________

   -------------------------------------------------------------------
   -------------------------------------------------------------------
   -------------------------------------------------------------------
   -2---2-2-2-2---0---0---2-2---2-2-2---2-2-2-2---5---5---5---4/5-43-
   -2---2-2-2-2---0---0---2-2---2-2-2---2-2-2-2---5---5---5---4/5-43-
   -2---2-2-2-2---0---0---2-2---2-2-2---2-2-2-2---5---5---5---4/5-43-
   _____________________________________________
                                                |
   ---------------------------------------------------------------
   ---------------------------------------------------------------
   ---------------------------------------------------------------
   2-2-2-2-2-2---0---0---2-2---2-2-2---2-2---2---0---2-2----------
   2-2-2-2-2-2---0---0---2-2---2-2-2---2-2---2---0---2-2----------
   2-2-2-2-2-2---0---0---2-2---2-2-2---2-2---2---0---2-2----------

Bridge Riff:
E-----------------------------------------
B--------------------------------5-5/6-5--
G--------------------------------4-4/5-4--
D--0---0-0-0-0-0-0-0-0-0-0-0-0-0----------
A--0---0-0-0-0-0-0-0-0-0-0-0-0-0---------- (Last time just keep playing
D--0---0-0-0-0-0-0-0-0-0-0-0-0-0----------  D5 until the chorus)
       P.M...(Gradually release)


Here's how the song goes:

Intro (Bass, Vocals, and Drums)
Riff 1 a bunch of times
Riff 2 once
Chorus Riff without that stuff
Riff 1 another bunch
Riff 2 once
Chorus Riff with that stuff
Riff 1 4 times
Bridge Riff 3 times
Chorus Riff with that stuff
Riff 1 one last bunch 
Аккорд HАккорд DАккорд GАккорд CАккорд FАккорд AАккорд D------2-2Аккорд A------2-2Аккорд D5Аккорд BАккорд E

Godsmack — Voodoo

 Tabbed By: Rob S. (Rob3455@Hotmail.com)
Date: Feb 29th 2004
* - palm-mute
H - hammer on
P - pull off
~ - vibrato
N.H. - Natural Harmonic
A.H. - Artificial Harmonic
/ - slide up
 - slide down
^ - Half Bend
F - Full Bend

Tune down one step to D,G,C,F,A,D

INTRO
D|---------|
A|--7/87--|
F|--6/76--|
C|--4/54--|
D|---------|
G|---------|

D|-------------------|
A|-------------------|
F|-------------------|
C|--2-2-2-2-2-2-2-2--|
G|--2-2-2-2-2-2-2-2--|
D|--0-0-0-0-0-0-0-0--|
      * * * * * *

Chorus
D|---------------|------------|---------------|-------------------|
A|-7-7-7-7-7-7-5-|--5-7-7-7-7-|-5/7-7-7-7-7-7-|--10-10-9-9/10-9--|
F|-6-6-6-6-6-6-4-|--4-6-6-6-6-|-4/6-6-6-6-6-6-|---9--9-8-8/9—-8--|
C|-4-4-4-4-4-4-2-|--2-4-4-4-4-|-2/4-4-4-4-4-4-|---7--7-6-6/7—-6--|
G|---------------|------------|---------------|-------------------|
D|---------------|------------|---------------|-------------------|
I'm not the one who's so far away...
D|-----------------|---------------|---------------|----------|
A|-5/7-7-7-7-7-7-5-|--5--7--7--7-7-|-5/7-7-7-75-5-|-/7-7---7-|
F|-4/6-6-6-6-6-6-4-|--4--6--6--6-6-|-4/6-6-6-64-4-|-/6-6---6-|
C|-2/4-4-4-4-4-4-2-|--2--4--4--4-4-|-2/4-4-4—42-2-|-/4-4---4-|
G|-----------------|---------------|---------------|----------|
D|-----------------|---------------|---------------|----------|
                               ...And I don't remember why I came
D|---------------|-----------------|-----------------|---------------|
A|-5/7-7-7--7-10-|-10109-9/1095-|-5/7-7-7-7-7-7-5-|--5--7--7--7-7-|
F|-4/6-6-6--6--9-|--9-98-8/ 984-|-4/6-6-6-6-6-6-4-|--4--6--6--6-6-|
C|-2/4-4-4--4--7-|--7-76-6/ 762-|-2/4-4-4-4-4-4-2-|--2--4--4--4-4-|
G|---------------|-----------------|-----------------|---------------|
D|---------------|-----------------|-----------------|---------------|
...don't remember why I came         I'm not the one who's so far away...

D|-----------------|---------------|-----------------|---------------|
A|-5/7-7-7-7-7-710-|-10--9-9/10-9-|-5/7-7-7-7-7-7-5-|--5--7--7--7-7-|
F|-4/6-6-6-6-6-6-9-|--9--8-8/9—-8-|-4/6-6-6-6-6-6-4-|--4--6--6--6-6-|
C|-2/4-4-4-4-4-4-7-|--7--6-6/7—-6-|-2/4-4-4-4-4-4-2-|--2--4--4--4-4-|
G|-----------------|---------------|-----------------|---------------|
D|-----------------|---------------|-----------------|---------------|
...feel the snake bite enter my veins...
D|-------------|---------------|
A|-5/7-7-7-75-|-5/7-7-7-7-7-7-|
F|-4/6-6-6-64-|-4/6-6-6-6-6-6-|
C|-2/4-4-4—42-|-2/4-4-4-4-4-4-|
G|-------------|---------------|
D|-------------|---------------|
...don't remember why I came

Interlude
D|-------|
A|-7/87-|
F|-6/76-|  Play a couple times
C|-4/54-|
G|-------|
D|-------|

D|---------(Play 2 times)----------| |---------------|-----------|
A|---------------|-----------7/87-| |---------------|-----------|
F|---------------|-----------6/76-| |---------------|-9---9-9---|
C|-2--2--2-2-2-2-|--2-2------4/54-| |-2-2-2-2-2-2-2-|-9---9-9---|
G|-2--2--2-2-2-2-|--2-2------------| |-2-2-2-2-2-2-2-|-7---7-7---|
D|-0--0--0-0-0-0-|--0-0------------| |-0-0-0-0-0-0-0-|-7---7-7---|

Outro
D|---------|
A|--7/87--|
F|--6/76--|
C|--4/54--|
G|---------|
D|---------|

I hope this is right so play on all you Godsmack fans! 
Аккорд HАккорд AАккорд FАккорд D

Godsmack — Voodoo

 Song: Voodoo
Artist: Godsmack
Album: Self Titled
Tabbed By: Ba$$ Lizard

PREVIOUS AUTHORS Christopher Banks: ashe1977@hotmail.com,
Seth Lemons: Thasolumn@yahoo.com


I've seen both of the tabs for this song, and neither are correct.
I thought this song was fairly easy, but since nobody seems to get 
it right i'll post the right version. Also, nobody has included the
chorus riff.

First of all, drop your E string to D. You don't need it for the 
verse but you have to to play the chorus correctly.

G:----------------------------
d:----------4-5-4-------------  
A:----------------4---3-4-3---  
D:-3-x-33---------------------

Chorus (Follows the Chords played by the guitar, I'm 95% sure this is
right)


G:---------------------------------------------------------------
d:---------------------------------------------------------------
A:---------------------------------------------------------------
D:-3-3-3-3-3-3-3-3-1-1-1-3-3-3--1-1-3-3-3-3-3-3-3-3/6-6-6-5/6-54

I may have the exact number of times you play each note right,
but it should be enought to figure it out.  The verse is correct
though. Also, i might be off by a fret or on those slides at the 
end of the chorus.  If anyone has anything better, i'm open to 
suggestion.
 
Аккорд EАккорд D

Godsmack — Voodoo

 Artist - Godsmack
Song - Voodoo
Album - Godsmack

Standard tuning (EADG)

Verse:

G/-----------------------
D/---------3-4-3---------
A/---------------3-------
E/-1-1-1-1---------4-3-0-

Chorus:

G/---------------------------
D/-----------3-1-----------1-
A/---1---1-3-----3-----1-3---
E/-1---1-----------4---------

G/--------------------------
D/-----------1--------------
A/---1---1-3----------------
E/-1---1-------4-4-4-3-4-3-0

G/---------------------------
D/-----------3-1-----------1-
A/---1---1-3-----3-----1-3---
E/-1---1-----------4---------

G/-------------------
D/-----------1-------
A/---1---1-3---------
E/-1---1--------0-0-1 
Аккорд GАккорд DАккорд AАккорд E