Портал для гитаристов
gtars.ru

Godsmack — What Ever

 T1: James Lees, Jaymz78@hotmail.com, Godsmack, Whatever 

 S1: Song:Whatever 
 By:Godsmack 
 Transcribed by:Jaymz Lees 
 Tuned To Drop D 


 Main RiffVerse 
 e|----------------------|---------------------- 
 b|----------8^--8^---8^-|----------8^--8^---8^- 
 g|---------11^-11^--11^-|---------11^-11^--11^- 
 D|----------------------|---------------------- 
 A|--0--0----------------|--0--0---------------- 
 D|--0--0----------------|--0--0---------------- 
 And I wonder... 

 between chorus and verse 
 e|----------------------|---------------|------------------------------------------|

 b|----------------------|---------------|------------------------------------------|

 g|----------------------|---------------|------------------------------------------|

 D|----------------------|---------------|------------------------------------------|

 A|--2---------8---7-6---|--2--2---------|--2-----------8---7--6----2--2------2--2--|

 D|--2---------8---7-6---|--2--2---------|--2-----------8---7--6----2--2------2--2--|

 P.M.. ............... 

 Chorus 
 e|------------------------------------------------------------|| 
 a|------------------------------------------------------------|| 
 g|------------------------------------------------------------|| 
 D|------------------------------------------------------------|| 
 A|---2-------8------6-------4------2-------8-------6------4---|| 
 D|---2-------8------6-------4------2-------8-------6------4---|| 
 I'm doin the best i ever did Im doin the best that i can  
Аккорд D

Godsmack — What Ever

 Godsmack - Whatever



   This song is pretty heavy and requires that you tune down 
   your low E string to a C, and the A string to a G. It's 
   really a cool way to tune down and you can do alot of stuff
   with it!



   --Beginning, Verses--
   E -----0-0-0-¦
   B -----7-7-7-¦
   G -----------¦ Repeat this a whole bunch of times.
   D -----------¦
   G -0-0-------¦
   C -0-0-------¦



   --Pre Chorus--
   E -----------------------------------------------------
   B -----------------------------------------------------
   G -----------------------------------------------------
   D -----------------------------------------------------
   G -0-----0----------6-----------6-6--------------------
   C -0-----0----------6-----------6-6--------------------
   I Feel for you ( muted )
   E -----------------------------------------------------
   B -----------------------------------------------------
   G -----------------------------------------------------
   D ------------------3----------------------------------
   G -0-----0----------3----------5-5------------3-3------
   C -0-----0---------------------5-5------------3-3------ 
   I Will behave----- you better go away



   --Chorus--
   E -----------------------------------------------------------
   B -----------------------------------------------------------
   G ------4--3--1--------4--3--1--------4--3--1----------------
   D ------6--5--3--------6--5--3--------6--5--3----------------
   G -0-0------------0-0------------0-0---------------3--3--3--3
   C -0-0------------0-0------------0-0---------------3--3--3--3
   I'm doin the I'm doin the I'm doin the now go away
   best I ever the best that best I ever 
   did I can did


   They throw in some different stuff, but it's all pretty much 
   on these riffs. 
Аккорд EАккорд AАккорд GАккорд BАккорд DАккорд C