Портал для гитаристов
gtars.ru

Godsmack — Whatever

 Godsmack, whatever
tabbed by crinkie, crinkie@hotmail.com

tuning-|e|
       |B|
       |G|
       |D|
       |A|
       |E|

Intro:  e|--------------------| then e|------|    
        B|------8--8--8-------|      B|------|     
        G|-----11-11-11-------|      G|------|  Pause  
        D|-5-5----------------| x7   D|-5-5--|    
        A|-3-3----------------|      A|-3-3--|    
        E|--------------------|      E|------|    

1st verse:    And i wonder day....
             e|--------------------|     
             B|------8--8--8-------|      
             G|-----11-11-11-------|       
             D|-5-5----------------| x8     
             A|-3-3----------------|         
             E|--------------------|      


1st pre-Chorus:   i will behave.......
       e|--------------------- e|------------------|   
       B|--------------------- B|------------------|   
       D|--------------------- D|------------------|   
       G|-5------------------- G|-5---3------------|  
       A|-3------4------4-4--- A|-3---1----3-3-2-2-|  
       E|--------2------2-2--- E|----------1-1-0-0-| 

1st Chrous: e|------------|
            B|------------|     
            D|-----6-5----|
            G|-5-5-4-3--8-| x3
            A|-3-3------6-|
            E|------------|

2nd verse:  i dont need to fanticize...   
             e|--------------------|     
             B|------8--8--8-------|      
             G|-----11-11-11-------|       
             D|-5-5----------------| x12    
             A|-3-3----------------|         
             E|--------------------|  

2nd Pre-Chorus:
       e|--------------------- e|------------------|   
       B|--------------------- B|------------------|   
       D|--------------------- D|------------------|   
       G|-5------------------- G|-5---3------------|  x2
       A|-3------4------4-4--- A|-3---1----3-3-2-2-|  
       E|--------2------2-2--- E|----------1-1-0-0-|   


2nd chorus:
        e|------------|       e|-----------|   
        B|------------|       B|-----------|   
        D|-----6-5----|       D|-----------|   
        G|-5-5-4-3--8-| x3    G|-5-8-8-8-8-| do all
        A|-3-3------6-|       A|-3-6-6-6-6-| this twice
        E|------------|       E|-----------|
 
during bass solo
            e|---------|
            B|---------|
            D|---------|
            G|-5-55----|  x8  (gap between each
            A|-3-33----|
            E|---------|

3rd chrorus:
        e|------------|       e|-----------|   
        B|------------|       B|-----------|   
        D|-----6-5----|       D|-----------|   
        G|-5-5-4-3--8-| x3    G|-5-8-8-8-8-| do all
        A|-3-3------6-|       A|-3-6-6-6-6-| this twice
        E|------------|       E|-----------|

then finishes with this

        e|--------------------| then e|------|    
        B|------8--8--8-------|      B|------|     
        G|-----11-11-11-------|      G|------|   
        D|-5-5----------------| x7   D|-5-5--|    
        A|-3-3----------------|      A|-3-3--|    
        E|--------------------|      E|------|     

Godsmack — Whatever

 -----------------------------------------------------------------
Whatever - Godsmack
-----------------------------------------------------------------
Tabbed by: godsmackthatkid

Tuning: drop D down 1 whole step

            |--verse--------------------|
                         repeat 7 times  
e|----------|-----------10---10---10----|-----------|
B|----------|*----------13---13---13---*|-----------|
G|----------|---------------------------|-----------|
D|--5*------|---------------------------|-----------|
A|--5*------|*--0---0------------------*|--0---0----|
E|--5*------|---0---0-------------------|--0---0----|
 * fade in

play verse 8 times


pre chorus
e|------------------------------------------------------------|
B|------------------------------------------------------------|
G|-------7--------------------------7-----5-------------------|
D|-0-----7-----6--------------0-----7-----5-----5--5-----3—-3-|
A|-0-----5-----6-----6--6-----0-----5-----3-----5--5-----3—-3-|
E|-0-----------6-----6--6-----0-----------------5—-5-----3—-3-|

chorus

e|---------------------------------------------------------------------------|
B|---------------------------------------------------------------------------|
G|---------------------------------------------------------------------------|
D|-0--0----6----5----3----0--0----6----5----3----0--0----6----5----3----0—-0-|
A|-0--0----6----5----3----0--0----6----5----3----0--0----6----5----3----0—-0-|
E|-0--0----6----5----3----0--0----6----5----3----0--0----6----5----3----0—-0-|

play verse 7 times 
Аккорд D

Godsmack — Whatever

 Godsmack

Whatever

*hold for eight beat

#hold for four beat


C 00 000

A

D

G


C0*  6*  0*        55 33

A                1#

D                 

G



C 000653 000653 00653  55 33

A

D

G



C00 00 00 00

A

D

G

 
Аккорд CАккорд AАккорд DАккорд GАккорд C00

Godsmack — Whatever

 BTAB  : Whatever
ARTIST: Godsmack
ALBUM : Godsmack (1998)
AUTHOR: Charlie
DATE  : 04/07/99

Great song from a great new band.

Drop C# tuning (I think... it sounds ok in my amp)

Figure out the placing and timing by yourself, listen to the song.

~ = long 

FIRST RIFF: Play many times

G --------------------------
D --------------------------
A --------------------------
C#--0-0---00-00--0----------


PRE-CHORUS:

G ---------------------------------
D ---------------------------------
A ------3-~--------------3-~-1-~---
C#--0-~-----5-~------0-~-----------


CHORUS:

G --------------------------------------------
D --------------------------------------------
A --------------------------------------------
C#--0-~--5-4-3-0-~--5-4-3---0-~--5-4-3--3-3-3-3--- (Play the last four pretty short)


THAT'S MOST OF IT, HAVE FUN!!!! 
Аккорд C#Аккорд GАккорд DАккорд AАккорд HAVE