Портал для гитаристов
gtars.ru

Goldfinger — 99 Red Balloons

 Intro (clean guitar)

   E     F#m     A      B
e---------2------5------7---------
B---------2------5------7---------
G--1------2------6------8---------
D--2------4------7------9---------
A--2------4------7------9---------
E---------2------5------7---------


Verse 1
The chords on the verse 1 are the same as the intro, played four times,
except that in the two first rounds it's palm muted.

w/distorsion

Riff 1
e----------------------------
B----------------------------
G--9-9-9-6-9-9-9-6-9-9-6-9-9-   (4x)
D----------------------------
A----------------------------
E----------------------------


Riff 2
e--------------------------------------        -------------
B--------------------------------------        -------------
G--------------------------------------  (2x)  -4-4-4-4-4-4-
D--2-2---2-----------2-2---2-----------        -4-4-4-4-4-4-
A------4---4-------------4---4-2-2-2-4-        -2-2-2-2-2-2-
E------------2-4-2-0-------------------        -------------


The whole riff 2 repits two times.

Chorus: E  F#m  A  B  (4x)


Riff 3
e-2-4-0-4-2-0---4-2-0-0---0---0-2---2-4-0-4-2-0---4-2-0-0---7-4-2-4--
B-------------2---------2---2-------------------2---------2----------
G--------------------------------------------------------------------
D--------------------------------------------------------------------
A--------------------------------------------------------------------
E--------------------------------------------------------------------


Verse 2
It's the same that verse 1

Riff 4 (this is the continue of the riff 3, and here the riff 3 ends
on 2nd fret instead 4th)

e-5-7-7-7-7-5-5-5-5-       -7-7-4-7-7-4-7-4---        ----------------
B-------------------       -------------------        -0-0-0-0-2-4
Аккорд EАккорд F#mАккорд AАккорд B

Goldfinger — 99 Red Balloons

 Goldfinger: 99 red balloons

tabbed by:tom blizzard(tombuttcrunch116@hotmail.com.com)

This is clean to begin with then gets a bit distorted.its not that hard to 
work out.but ive done it all for you any way.it
basically runs around 4 chords.im not sure about the words-
i guessed.good luck
intro

e|---------------------------------------------------------------------
b|---------------------------------------------------------------------
g|---------------------------------------------------------------------
d|---2--222222--4--444444--777--7777-777--999-9999999------------------
a|---2--222222--4--444444--777--7777-777--999-9999999------------------
E|---0--000000--2--222222--555--5555-555--777-7777777------------------

verse 1
e|---------------------------------------------------------------------
b|---------------------------------------------------------------------
g|---------------------------------------------------------------------
d|---------------------------------------------------------------------
a|---22222222--44444444--77777777--99999999----------------------------
E|---00000000--22222222--55555555--77777777----------------------------
pm --------------------------------------|

you and i in a little toy shop buy a bag of balloons with the money 
weve got,
set them free at the break of dawn till one by one they were gone

verse 1(not pm)
e|---------------------------------------------------------------------
b|---------------------------------------------------------------------
g|---1--1--1-1-1--3--3--3-3-3--6--6--6-6-6--8--8--8-8-8----------------
d|---2--2--2-2-2--4--4--4-4-4--7--7--7-7-7--9--9--9-9-9----------------
a|---2--2--2-2-2--4--4--4-4-4--7--7--7-7-7--9--9--9-9-9----------------
E|---0--0--0-0-0--2--2--2-2-2--5--5--5-5-5--7--7--7-7-7----------------

back at base bugs in the software, flash the message somethings out 
there.
floating in the summer sky, 99 red ballons go by.

fill 1
e|---------------------------------------------------------------------
b|---------------------------------------------------------------------
g|---9-9-9-9-999-99-9-9-999-99-9-9-999-99-9----------------------------
d|---------------------------------------------------------------------
a|---7-7-7-7-777-77-7-7-777-77-7-7-777-77-7----------------------------
E|---------------------------------------------------------------------

e|---------------------------------------------------------------------
b|---------------------------------------------------------------------
g|---------------------------------------------------------------------
d|---9996-9-6-----------9996-9-6-44-4/6--9996-9-6-------------------
a|---7774-7-4--4/64-2--7774-7-4-22-2/4--7774-7-4--4/64-2----------
E|--------------2/42-0-------------------------------2/42-0----------

e|---------------------------------------------------------------------
b|---------------------------------------------------------------------
g|---------------------------------------------------------------------
d|---9996-9-6--4-44--4-44---9996-9-6-----------9996-9-6-44-4/6------
a|---7774-7-4--2-22--2-22---7774-7-4--4/64-2--7774-7-4-22-2/4------
E|--------------------------------------2/42-0------------------------
pm             |--|  |--|

e|---------------------------------------------------------------------
b|---------------------------------------------------------------------
g|---------------------------------------------------------------------
d|---9996-9-6-----------9996-9-6--4444-4444--------------------------
a|---7774-7-4--4/64-2--7774-7-4--2222-2222--------------------------
E|--------------2/42-0------------------------------------------------

verse 2
e|---------------------------------------------------------------------
b|---------------------------------------------------------------------
g|---------------------------------------------------------------------
d|---------------------------------------------------------------------
a|---22222222-44444444-77777777-99999999-------------------------------
E|---00000000-22222222-55555555-77777777-------------------------------

99 red balloons, far out in the summer sky, panic bells its red alert
theres something here from somewhere else.

solo
e|---------------------------------------------------------------------
b|------9---9--------9---------------------------9---9---------9-------
g|---11---9---11-9-----11-9-9----9----9-11--9/11---9---11-9------11-9-9
d|-----------------11---------11---11-----------------------11---------
a|---------------------------------------------------------------------
E|---------------------------------------------------------------------

e|---------------------------------------------------------------------
b|------12-9----9------------------------------------------------------
g|-----------11--------------------------------------------------------
d|---11----------------------------------------------------------------
a|---------------------------------------------------------------------
E|---------------------------------------------------------------------

verse 3
e|---------------------------------------------------------------------
b|---------------------------------------------------------------------
g|---------------------------------------------------------------------
d|---------------------------------------------------------------------
a|---22222222--44444444--77777777--99999999----------------------------
E|---00000000--22222222--55555555--77777777----------------------------
pm ------------------------------|

99 decision street, 99 ministers league
e|---------------------------------------------------------------------
b|---------------------------------------------------------------------
g|---------------------------------------------------------------------
d|---------------------------------------------------------------------
a|---22222222--44444444--77777777--99999999----------------------------
E|---00000000--22222222--55555555--77777777----------------------------
pm ------------------------|

to worry, worry, superscurry, call out the troops now in a hurry.

e|---------------------------------------------------------------------
b|---------------------------------------------------------------------
g|---------------------------------------------------------------------
d|---------------------------------------------------------------------
a|---22--44--xx77--99999999--------------------------------------------
E|---00--22--xx55--77777777--------------------------------------------

this is what weve waited for, this is it boys this is war.

e|---------------------------------------------------------------------
b|---------------------------------------------------------------------
g|---------------------------------------------------------------------
d|---------------------------------------------------------------------
a|---22222222-44444444-77777777-99-9--9-9------------------------------
E|---00000000-22222222-55555555-77-7--7-7------------------------------

the president is on the line, as 99 red balloons go by.

(German spoken bit is the same as first verse with addition to solo)

solo 2
e|---------------------------------------------------------------------
b|-------------------------------------------------------12-9-12-9-12--
g|---99-11-11-999-99-11-11-999-99-11-11-999-99-11-11-999---------------
d|---------------------------------------------------------------------
a|---------------------------------------------------------------------
E|---------------------------------------------------------------------

e|---------------------------------------------------------------------
b|---9h12-9h12-9h12-9h12-9h12-9h12-------------------------------------
g|---------------------------------------------------------------------
d|---------------------------------------------------------------------
a|-----------------------------------222-44/7-------------------------
E|-----------------------------------000-22/5-------------------------

outro
e|---------------------------------------------------------------------
b|---------------------------------------------------------------------
g|---1--1--1-1-1--3--3--3-3-3--6--6--6-6-6--8--8--8-8-8----------------
d|---2--2--2-2-2--4--4--4-4-4--7--7--7-7-7--9--9--9-9-9----------------
a|---2--2--2-2-2--4--4--4-4-4--7--7--7-7-7--9--9--9-9-9----------------
E|---0--0--0-0-0--2--2--2-2-2--5--5--5-5-5--7--7--7-7-7----------------

99 dreams i have had in every one a red balloon
its all over and im standing pretty in the dust that was a city
if i could find a souvenir just to prove a world was here

e|---------------------------------------------------------------------
b|---------------------------------------------------------------------
g|---1--1--1-1-1--3--3--3-3-3--6--6--6-6-6--8--------------------------
d|---2--2--2-2-2--4--4--4-4-4--7--7--7-7-7--9--------------------------
a|---2--2--2-2-2--4--4--4-4-4--7--7--7-7-7--9--------------------------
E|---0--0--0-0-0--2--2--2-2-2--5--5--5-5-5--7--------------------------

and here it is a red balloon i think of you and let it go. 

Goldfinger — 99 Red Balloons

 Tabbed by: MT_Beaver_2000@hotmail.com
 
Clean

  E    E        F#       A        B
|-0----0-0-0----2-2-2----5-5-5----7-7-7------------------------------|
|-0----0-0-0----2-2-2----5-5-5----7-7-7------------------------------|   Play First E with volume
|-1----1-1-1----2-2-2----6-6-6----8-8-8------------------------------|   turned all the way down then
|-2----2-2-2----4-4-4----7-7-7----9-9-9------------------------------|X1 increase the volume slowly
|-2----2-2-2----4-4-4----7-7-7----9-9-9------------------------------|
|-0----0-0-0----2-2-2----5-5-5----7-7-7------------------------------|

|--------------------------------------------------------------------|
|--------------------------------------------------------------------|   Let up on the muting 
|--------------------------------------------------------------------|   on the last chord the
|--2-2-2-2-2-2-2-2-4-4-4-4-4-4-4-4-7-7-7-7-7-7-7-7-9-9-9-9-9-9-9-9---|X2 second time around
|--2-2-2-2-2-2-2-2-4-4-4-4-4-4-4-4-7-7-7-7-7-7-7-7-9-9-9-9-9-9-9-9---|
|--0-0-0-0-0-0-0-0-2-2-2-2-2-2-2-2-5-5-5-5-5-5-5-5-7-7-7-7-7-7-7-7---|

PM|---------------------------------------------------------------|


|--0---0--0--0--0-0-2---2--2--2--2-2-5---5--5--5--5-5-7---7--7--7--7-7-|
|--0---0--0--0--0-0-2---2--2--2--2-2-5---5--5--5--5-5-7---7--7--7--7-7-|
|--1---1--1--1--1-1-2---2--2--2--2-2-6---6--6--6--6-6-8---8--8--8--8-8-|
|--2---2--2--2--2-2-4---4--4--4--4-4-7---7--7--7--7-7-9---9--9--9--9-9-|X2
|--2---2--2--2--2-2-4---4--4--4--4-4-7---7--7--7--7-7-9---9--9--9--9-9-|
|--0---0--0--0--0-0-2---2--2--2--2-2-5---5--5--5--5-5-7---7--7--7--7-7-|

|----------------------------------------------------------|
|----------------------------------------------------------|
|--9-x-x-9-x-x-9-9-----------------------------------------|
|--x-x-x-x-x-x-x-x-----------------------------------------|
|--7-x-x-7-x-x-7-7-----------------------------------------|X4
|----------------------------------------------------------|

 Heavy Distortion
|---------------------------------------------------------|
|---------------------------------------------------------|
|---------------------------------------------------------|
|---2-2---2------------2-2---2---4-4-4/6------------------|
|-------4---4--------------4---4-2-2-2/4------------------|
|-------------2h4p2p0-------------------------------------|

|---------------------------------------------------------|
|---------------------------------------------------------|
|---------------------------------------------------------|
|---2-2---2------------2-2---2----4-x-x-4-x-x-------------|
|-------4---4--------------4---4--2-x-x-2-x-x-------------|
|-------------2h4p2p0-------------------------------------|

|---------------------------------------------------------|
|---------------------------------------------------------|
|---------------------------------------------------------|
|---2---2------------2-2---2---4-4-4/6--------------------|
|-----4---4--------------4---4-2-2-2/4--------------------|
|-----------2h4p2p0---------------------------------------|

|---------------------------------------------------------|
|---------------------------------------------------------|
|---------------------------------------------------------|
|---2-2---2------------2-2---2----2-2-2-2-2-2-2-2---------|
|-------4---4--------------4---4--2-2-2-2-2-2-2-2---------|
|-------------2h4p2p0-------------0-0-0-0-0-0-0-0---------|

 Distortion
|----------------------------------------------------------------------|
|----------------------------------------------------------------------|
|----------------------------------------------------------------------|
|--2---2--2--2--2-2-4---4--4--4--4-4-7---7--7--7--7-7-9---9--9--9--9-9-|X2
|--2---2--2--2--2-2-4---4--4--4--4-4-7---7--7--7--7-7-9---9--9--9--9-9-|
|--0---0--0--0--0-0-2---2--2--2--2-2-5---5--5--5--5-5-7---7--7--7--7-7-|

|---------------------------------------------------------|
|---------------------------------------------------------|
|---------------------------------------------------------|X1 Strike each chord then
|--2-2-2-2---4-4-4-4---7-7-7-7---9-9-9-9------------------|   relax your fretting hand
|--2-2-2-2---4-4-4-4---7-7-7-7---9-9-9-9------------------|
|--0-0-0-0---2-2-2-2---5-5-5-5---7-7-7-7------------------|

|----------------------------------------------------------------------|
|----------------------------------------------------------------------|
|----------------------------------------------------------------------|
|--2---2--2--2--2-2-4---4--4--4--4-4-7---7--7--7--7-7-9---9--9--9--9-9-|X1
|--2---2--2--2--2-2-4---4--4--4--4-4-7---7--7--7--7-7-9---9--9--9--9-9-|
|--0---0--0--0--0-0-2---2--2--2--2-2-5---5--5--5--5-5-7---7--7--7--7-7-|

 Solo

 Distortion
|---------------------------------------------------------|
|------9---9----------9----------9------------------------|
|--/11---9---11--9------11--9-9~---9----9--11-11----------|
|------------------11----------------11-------------------|
|---------------------------------------------------------|
|---------------------------------------------------------|

|---------------------------------------------------------|
|------9---9----------9----------9--12--9----9------------|
|--/11---9---11--9------11--9-9~----------11--------------|
|------------------11-------------------------------------|
|---------------------------------------------------------|
|---------------------------------------------------------|

 Distortion
|--------------------------------------------------------------------|
|--------------------------------------------------------------------|   Let up on the muting
|--------------------------------------------------------------------|   on the last chord the
|--2-2-2-2-2-2-2-2-4-4-4-4-4-4-4-4-7-7-7-7-7-7-7-7-9-9-9-9-9-9-9-9---|X2 second time around
|--2-2-2-2-2-2-2-2-4-4-4-4-4-4-4-4-7-7-7-7-7-7-7-7-9-9-9-9-9-9-9-9---|
|--0-0-0-0-0-0-0-0-2-2-2-2-2-2-2-2-5-5-5-5-5-5-5-5-7-7-7-7-7-7-7-7---|

PM|---------------------------------------------------------------|

 Distortion
|---------------------------------------------------------|
|---------------------------------------------------------|
|---------------------------------------------------------|
|--2-2---4-4---7-7---9-9-9-9-9-9-9-9----------------------|X1
|--2-2---4-4---7-7---9-9-9-9-9-9-9-9----------------------|
|--0-0---2-2---5-5---7-7-7-7-7-7-7-7----------------------|

|---------------------------------------------------------|
|---------------------------------------------------------|
|---------------------------------------------------------|X1 Strike each chord then
|--2-2-2-2---4-4-4-4---7-7-7-7---9-9-9-9------------------|   relax your fretting hand
|--2-2-2-2---4-4-4-4---7-7-7-7---9-9-9-9------------------|
|--0-0-0-0---2-2-2-2---5-5-5-5---7-7-7-7------------------|

|----------------------------------------------------------|
|--------------------------This is played under------------|
|--9-x-x-9-x-x-9-9-----------------------------------------|X4
|--x-x-x-x-x-x-x-x--------2-2---2-----2-2---2--------------|
|--7-x-x-7-x-x-7-7------------4---4-------4---4------------|
|----------------------------------------------------------|

 Heavy Distortion
|---------------------------------------------------------|
|---------------------------------------------------------|
|---------------------------------------------------------|
|---2-2---2------------2-2---2---4-4-4/6------------------|
|-------4---4--------------4---4-2-2-2/4------------------|
|-------------2h4p2p0-------------------------------------|

|---------------------------------------------------------|
|---------------------------------------------------------|
|---------------------------------------------------------|
|---2-2---2------------2-2---2----4-x-x-4-x-x-------------|
|-------4---4--------------4---4--2-x-x-2-x-x-------------|
|-------------2h4p2p0-------------------------------------|

|---------------------------------------------------------|
|---------------------------------------------------------|
|---------------------------------------------------------|
|---2---2------------2-2---2---4-4-4/6--------------------|
|-----4---4--------------4---4-2-2-2/4--------------------|
|-----------2h4p2p0---------------------------------------|

|---------------------------------------------------------|
|---------------------------------------------------------|
|---------------------------------------------------------|
|---2-2---2------------2-2---2----2-2-2-2-2-2-2-2---------|
|-------4---4--------------4---4--2-2-2-2-2-2-2-2---------|
|-------------2h4p2p0-------------0-0-0-0-0-0-0-0---------|

 Distortion
|----------------------------------------------------------------------|
|----------------------------------------------------------------------|
|----------------------------------------------------------------------|
|--2---2--2--2--2-2-4---4--4--4--4-4-7---7--7--7--7-7-9---9--9--9--9-9-|X3
|--2---2--2--2--2-2-4---4--4--4--4-4-7---7--7--7--7-7-9---9--9--9--9-9-|
|--0---0--0--0--0-0-2---2--2--2--2-2-5---5--5--5--5-5-7---7--7--7--7-7-|

|---------------------------------------------------------|
|---------------------------------------------------------|
|---------------------------------------------------------|X1 Strike each chord then 
|--2-2-2-2---4-4-4-4---7-7-7-7---9-9-9-9------------------|   relax your fretting hand
|--2-2-2-2---4-4-4-4---7-7-7-7---9-9-9-9------------------|
|--0-0-0-0---2-2-2-2---5-5-5-5---7-7-7-7------------------|

Solo

 Distortion
|---------------------------------------------------------|
|------9---9----------9----------9------------------------|
|--/11---9---11--9------11--9-9~---9----9--11-11----------|
|------------------11----------------11-------------------|
|---------------------------------------------------------|
|---------------------------------------------------------|

|---------------------------------------------------------|
|------9---9----------9----------9--12--9----9------------|
|--/11---9---11--9------11--9-9~----------11--------------|
|------------------11-------------------------------------|
|---------------------------------------------------------|
|---------------------------------------------------------|

|---------------------------------------------------------|
|---------------------X4------12-12-9-12-12p9-9-9-12-12---|
|--9/11-11-11-119-9-9------------------------------------|
|---------------------------------------------------------|
|---------------------------------------------------------|
|---------------------------------------------------------|

|---------------------------------------------------------|
|--9-12-12p9-9-9-12p9-12-12-9-12-12p9-9-9----------------|
|-------------------------------------------9999/11-------|
|-------------------------------------------9999/11--2----|
|-------------------------------------------7777/9---2----|
|----------------------------------------------------0----|

Clean

   E                F#               A                B
|--0---0--0--0--0-0-2---2--2--2--2-2-5---5--5--5--5-5-7---7--7--7--7-7-|
|--0---0--0--0--0-0-2---2--2--2--2-2-5---5--5--5--5-5-7---7--7--7--7-7-|
|--1---1--1--1--1-1-2---2--2--2--2-2-6---6--6--6--6-6-8---8--8--8--8-8-|
|--2---2--2--2--2-2-4---4--4--4--4-4-7---7--7--7--7-7-9---9--9--9--9-9-|X4
|--2---2--2--2--2-2-4---4--4--4--4-4-7---7--7--7--7-7-9---9--9--9--9-9-|
|--0---0--0--0--0-0-2---2--2--2--2-2-5---5--5--5--5-5-7---7--7--7--7-7-| 
Аккорд EАккорд F#Аккорд AАккорд B

Goldfinger — 99 Red Balloons

   Tabber: Connor G.
  Tuning: Standard
  Song: 99 Red Balloons
  Artist: Goldfinger ( the original is nena )
  
    Intro ( in the distance )
  e-----------------------------------|
  B-----------------------------------|
  G-----------------------------------|
  D-----------------------------------|
  A-----------------------------------|
  E00000000-22222222-55555555-77777777|

  e---------------------------|
  B---------------------------|
  G---------------------------|
  D-2-2-2---------2-2-2-------|x2
  A----4-4--(4)------4-4-2----|
  E------------------------(0)|
 main riff
  e---------------------------------|
  B---------------------------------|
  G---------------------------------|
  D-2-2-2------------2-2-2----------|
  A----4-4--------------4-4--2-2-2-4|
  E--------2-4-2-(0)----------------|

  e--------------------------------------|
  B--------------------------------------|
  G--------------------------------------|
  D-2-2-2------------2-2-2---------------|
  A----4-4--------------4-4--4-2-2--4-2-2|
  E--------2-4-2-(0)---------------------|

  e---------------------------------|
  B---------------------------------|
  G---------------------------------|
  D-2-2-2------------2-2-2----------|
  A----4-4--------------4-4--2-2-2-4|
  E--------2-4-2-(0)----------------|

  e-------------------------------------|
  B-------------------------------------|
  G-------------------------------------|
  D-2-2----------2-2-2------------------|
  A--4-4------------4-4--2-2-2-2-2-2-2-2|
  E------2-4-2-(0)----------------------|
    
  e-----------------------------------|
  B-----------------------------------|
  G-----------------------------------|
  D---------44444444-77777777-99999999| x2
  A---------44444444-77777777-99999999|
  E00000000-22222222-55555555-77777777|

  e------------------------------------|
  B------------------------------------|
  G------------------------------------|
  D----------4-4-4-4--7-7-7-7--9-9-9-9-|
  A----------4-4-4-4--7-7-7-7--9-9-9-9-|
  E-0-0-0-0--2-2-2-2--5-5-5-5--7-7-7-7-|

  e-----------------------------------|
  B-----------------------------------|
  G-----------------------------------|
  D---------44444444-77777777-99999999| 
  A---------44444444-77777777-99999999|
  E00000000-22222222-55555555-77777777|
  Solo
  e-2-4-0--4-2-0--4-2-0-0-0-0-2-|
  B-------------2--------2-2----|
  G-----------------------------|
  D-----------------------------|
  A-----------------------------| 
  E-----------------------------|

  e-2-4-0--4-2-0--4-2-0-0--7-4-2-4|
  B-------------2--------2--------|
  G-------------------------------|
  D-------------------------------|
  A-------------------------------|
  E-------------------------------|

  e-----------------------------------|
  B-----------------------------------|
  G-----------------------------------|
  D---------------------------99999999|x2
  A---------------------------99999999|
  E00000000-22222222-55555555-77777777|

  e----------------------------------|
  B----------------------------------|
  G----------------------------------|
  D-------4-4---7-7---9-9-9-9-9-9-9-9|
  A-------4-4---7-7---9-9-9-9-9-9-9-9|
  E-0-0---2-2---5-5---7-7-7-7-7-7-7-7|

  e-----------------------------------|
  B-----------------------------------|
  G-----------------------------------|
  D---------44444444-77777777-99999999| 
  A---------44444444-77777777-99999999|
  E00000000-22222222-55555555-77777777|

  e---------------------------|
  B---------------------------|
  G---------------------------|
  D-2-2-2---------2-2-2-------|
  A----4-4--(4)------4-4-2----|
  E------------------------(0)|

  e---------------------------------|
  B---------------------------------|
  G---------------------------------|
  D-2-2-2------------2-2-2----------|
  A----4-4--------------4-4--2-2-2-4|
  E--------2-4-2-(0)----------------|

  e--------------------------------------|
  B--------------------------------------|
  G--------------------------------------|
  D-2-2-2------------2-2-2---------------|
  A----4-4--------------4-4--4-2-2--4-2-2|
  E--------2-4-2-(0)---------------------|

  e---------------------------------|
  B---------------------------------|
  G---------------------------------|
  D-2-2-2------------2-2-2----------|
  A----4-4--------------4-4--2-2-2-4|
  E--------2-4-2-(0)----------------|

  e-------------------------------------|
  B-------------------------------------|
  G-------------------------------------|
  D-2-2----------2-2-2------------------|
  A--4-4------------4-4--2-2-2-2-2-2-2-2|
  E------2-4-2-(0)----------------------|
    
  e-----------------------------------|
  B-----------------------------------|
  G-----------------------------------|
  D---------44444444-77777777-99999999| x3
  A---------44444444-77777777-99999999|
  E00000000-22222222-55555555-77777777|

  e------------------------------------|
  B------------------------------------|
  G------------------------------------|
  D----------4-4-4-4--7-7-7-7--9-9-9-9-|
  A----------4-4-4-4--7-7-7-7--9-9-9-9-|
  E-0-0-0-0--2-2-2-2--5-5-5-5--7-7-7-7-|
 Back to solo
  e-2-4-0--4-2-0--4-2-0-0-0-0-2-|
  B-------------2--------2-2----|
  G-----------------------------|
  D-----------------------------|
  A-----------------------------| 
  E-----------------------------|

  e-2-4-0--4-2-0--4-2-0-0--7-4-2-4|
  B-------------2--------2--------|
  G-------------------------------|
  D-------------------------------|
  A-------------------------------|
  E-------------------------------|

  e-0-2-2-2-2-0-0-0--0-2-2-2-2-0-0-0|
  B---------------------------------|
  G---------------------------------|
  D---------------------------------|x2
  A---------------------------------|
  E---------------------------------|

  e-7-7-4--7-7-4--7-7-4|
  B--------------------|
  G--------------------|
  D--------------------|x2
  A--------------------|
  E--------------------|

  e-7-7-4-2-2-2-2-4---|
  B--------------------| 
  G--------------------|
  D--------------------|
  A--------------------|
  E-------------------0|

  e-0-0-0-0-0--2-2-2-2-2--5-5-5-5-5-7-7-7---(0)|
  B--------------------------------------------|
  G--------------------------------------------|
  D--------------------------------------------|
  A--------------------------------------------|
  E--------------------------------------------|
Wow thats the longest tab I ever wrote, please vote!!! 
Аккорд G