Портал для гитаристов
gtars.ru

Goldfinger — Bro

 Song:  Bro
Artist:  Goldfinger
Album:  Stomping Ground

This is off of Goldfinger's currently brand new album (which is probably old
by the time you're reading this); this is Track 7.

Kelly LeMieux, Goldfinger's new bassist (yeah, they kicked Simon Williams out),
prefers playing pickless it would seem; he plays with his fingers like every other cool
bassist out there, and this song seems to be no exception.

Bass comes in with the same riff as in the chorus; same notes as guitar for the
intro.  It comes in after 2 playings of the guitar riff, then after 2 playings of
the bass riff goes to chorus (yep, the SAME thing!).

Intro/Chorus

G: ----------------------------------------------
D: ----------------------------------------------
A: --5-5--0-3-3-----0-0--------0-----------------
E: --------------------------1-3------3--1-------

Verses:

G: ----------------------------------------------
D: ----------------------------------------------
A: --2-2-----------------1--1--------2--2--------
E: --------1-1---1--1-----------2------------3---

First Pre-chorus:

G: ----------------------------------------------
D: ----------------------------------------------
A: --2-2-----------------------------------------
E: --------1-1---1--1--2--3----------------------

For their variation on second verse:

G: ----------------------------------------------
D: ----------------------------------------------
A: --2-2-----------------------------------------
E: --------1-1---1--1--1-2-3-4-5-6---------------

Second Pre-chorus:

G: ----------------------------------------------
D: ----------------------------------------------
A: --2-2-------------------------3--4--5---------
E: --------1-1---1--1--2--3----------------------

Ska part:
(I have put this in the easiest to play terms for me;
you may wish to play it differently [i.e. 1 on the D
string instead of 6 on the A, etc.] if you find it easier)

G: ---------------------------2----1-2--1--------
D: -----------2--4--2--1------------------------
A: --4----6--------------------------------------
E: ----------------------------------------------

G: ----------------------------------------------
D: -----------2--4--2--1------------------------
A: --4----6---------------------4--7-------3--6--
E: ---------------------------5---------4--------

Does decorations on last note of first part of riff;
does only root notes last 2 times through
Then plays first note once only; goes back to chorus
For the ending, the bass stays the same; the guitar has a
cool riff but bass remains, cuts out instead of ending riff.

Ending:

G: ----------------------------------------------
D: ----------------------------------------------
A: --5-5--0-3-3-----0-0--------------------------
E: --------------------------1-3-----------------

(Holds last note)

Any comments/miscellaneous/incoherent thoughts to be directed to:
i_dUNNO16@Hotmail.com

Tabbed by Lord Whitey the Terrible






 
Аккорд D

Goldfinger — Bro

 name: Dominic Martinez

artist: Goldfinger

SongTitle: Bro

Tabs: pick strokes are up to you to figure out
just an interpretation, nothing more

intro
E-----------------
B-----------------
G-----------------
D-----------------
A-----------------
E---3--5--8--7----
   (PALM MUTE)

chorus
E-----------------
B-----------------
G-----------------
D--7--5--10--9----
A--7--5--10--9----
E--5--3--8---7----
  (distorted)

 verse 1 (very hard to tell...too much distortion)
E----------------------
B----------------------
G----------------------
D---7--9--5--7/9--7/9--
A---7--9--5--7-9--7/9--
E---5--7--3--5/7--5/7--

bridge
E-------10--8h10p8h10p8/6---11--9--7-
B--/10-------------------------------
G--/10-------------------------------
D------------------------------------
A------------------------------------
E------------------------------------

verse 2
E---5--5-----5--7----------
B---6--5-----6--5----------
G---7--7-----7--7----------
D---7--7-----7--7----7-6---
A---5--5-----5--5----7-6---
E---5--5-----5--5----5-4---
  (ska strokes)     (distorted)

E--5--5----5--5--6--5
B--6--5----6--5--7--6
G--7--7----7--7--8--7
D--7--7----7--7--8--7
A--5--5----5--5--6--5
E--5--5----5--5--6--5
(ska strokes)

Fill 1
E-11/12--9---5--5
B------------5--6
G------------7--7
D------------7--7
A------------5--5
E------------5--5
            (alternates)

Verse/Song Structure
(INTRO)
(Chorus)
You're not my bro, don't say it
don't you pretend that 
you're my bro, don't say it
don't you pretend that 
you're my bro

(verse 1)
you think you're my friend 
yet you just take from me
so now is the end so 
don't fucking smile
just get the fuck away from me

(chorus)
You're not my bro, don't say it
don't you pretend that 
you're my bro, don't say it
don't you pretend that 
you're not my bro

(verse 1)
you use your fake friends
you use them and throw them away
so now is the end so
don't fucking smile
just get the fuck away from me
get the fuck away

(chorus)
You're not my bro, don't say it
don't you pretend that 
you're my bro, don't say it
don't you pretend that 
you're not my bro

(Bridge)
(verse2)
now you have forsaken
all that i have known
now you've really taken me
for everything i own

when i want it back 
i doubt you'll ever see
it's you that has to pay the price
and me who is set free
you're not my bro
(riff 1)

(chorus)
You're not my bro, don't say it
don't you pretend that 
you're my bro, don't say it
don't you pretend that 
you're not my bro

 
Аккорд B--Аккорд G--Аккорд E-11

Goldfinger — Bro

 --------------------------------------------------------------------------- 
BRO - Goldfinger 
--------------------------------------------------------------------------- 

submitted by:turtleman983

INTRO: 
e|------------------------------------------------------------------------| 
B|------------------------------------------------------------------------| 
G|------------------------------------------------------------------------| 
D|-----------------------------------------(x4)---------------------------| 
A|---4-4---0---2-2--------------------------------------------------------| 
E|------------------4-4---0---2-4-2-0-------------------------------------| 

CHORUS: 
e|------------------------------------------------------------------------| 
B|------------------------------------------------------------------------| 
G|------------------------------------------------------------------------| 
D|---6-6---2---4-4------------------------------(x4)----------------------| 
A|---4-4---0---2-2--6-6---2---4-6-4-2-------------------------------------| 
E|------------------4-4---0---2-4-2-0-------------------------------------|

VERSE: 
e|-----------------------------|--------- 
B|-----------------------------|--------- 
G|-----------------------------|--------- 
D|-3---------------3-3--2-(x2)-|-3--4--5- (2nd time only) 
A|-1--2-2-2-2-2-2--1-1--0- ----|-1--2--3- 
E|----0-0-0-0-0-0--------------|---------