Портал для гитаристов
gtars.ru

Goldfinger — Free Me

 Tab by - Mathias Pedersen

INTRO/OUTRO

E:--------------------------
B:--------------------------
G:--------------------------
D:--2-0-2--2-0-2--2-0-3-2-0-   X2
A:3------------------3------
E:-------3------1----------3

VERSE:
C                   Am
I didn't ask you to take me from here
Dm                  G
I didn't ask to be broken
C                   Am
I didn't ask you to stroke my hair
Dm                            G
And treat me like a worthless token
C              Am
But my skin is thick
Dm          G
My mind is strong
C                  Am
I am built like my father was
Dm                G
I've done nothing wrong

CHORUS:
   C    Am
So free me
Dm            G                     C      Am
I just wanna feel what life should be
Dm           G                    C
I just want enough space to turn around
             Am
And face the truth
   Dm    G(hold)
So free me

VERSE:
C                  Am
When are you gonna realise
Dm           G
You're just wrong
C              Am
You can't even think for yourselves
Dm                           G
You can't even make up your minds
C              Am
So my mind's a jail
  Dm              G              C
I hate the whole god-damn human race
                     Am
What the hell do you want from me
Dm                         G
Kill me if you just don't know

CHORUS:
   C    Am
Or free me
Dm              G                     C      Am
I just want to feel what life should be
Dm           G                    C 
I just want enough space to turn around
             Am
But your all f*cked
    Dm             G                  
And someday maybe you'll treat me like you 
Аккорд CАккорд AmАккорд DmАккорд G

Goldfinger — Free Me

 -------------------------------------------------------------------------------
			   Free Me   - Gold Finger
-------------------------------------------------------------------------------
Tabbed by: FlyingPenguin
Email: pensivepunk475@yahoo.com
Tuning: Standard


              INTRO - REPEAT 2 TIMES.
e|---------------------------------------------|
B|---------------------------------------------|
G|---------------------------------------------|
D|------2-0-2----2-0-2-----2-0----3-2-0--------| 
A|---3-------------------------3---------------|
E|-------------3---------1--------------3------|

         
              REPEAT THRU ENTIRE SONG.
e|-0-0-0-0-0-0---0-0-0-0-0-0---1-1-1-1-1-1---3-3-3-3-3-3--|
B|-1-1-1-1-1-1---1-1-1-1-1-1---1-1-1-1-1-1---3-3-3-3-3-3--|
G|-0-0-0-0-0-0---2-2-2-2-2-2---2-2-2-2-2-2---0-0-0-0-0-0--|
D|-2-2-2-2-2-2---2-2-2-2-2-2---3-3-3-3-3-3---0-0-0-0-0-0--|
A|-3-3-3-3-3-3-------------------------------2-2-2-2-2-2--|
E|-0-0-0-0-0-0-------------------------------3-3-3-3-3-3--|

             REPEAT INTRO 2 TIMES = OUTRO

| /  slide up
|   slide down
| h  hammer-on
| p  pull-off
| ~  vibrato
| +  harmonic
| x  Mute note
=============================================================================== 

Goldfinger — Free Me

 INTRO/OUTRO

E:--------------------------
B:--------------------------
G:--------------------------
D:--2-0-2--2-0-2--2-0-3-2-0-   X2
A:3------------------3------
E:-------3------1----------3

VERSE:
C                   A
I didn't ask you to take me from here
F                  G
I didn't ask to be broken
C                   A
I didn't ask you to stroke my hair
F                             G
And treat me like a worthless token
C              A
But my skin is thick
F          G
My mind is strong
C                  A
I am built like my father was
F                 G
I've done nothing wrong

CHORUS:
   C    A
So free me
F            G                     C      A
I just wanna feel what life should be
F           G                    C
I just want enough space to turn around
             A
And face the truth
   F    G(hold)
So free me

VERSE:
C                  A
When are you gonna realise
F           G
You're just wrong
C              A
You can't even think for yourselves
F                           G
You can't even make up your minds
C              A
So my mind's a jail
  F              G              C
I hate the whole god-damn human race
                     A
What the hell do you want from me
F                         G
Kill me if you just don't know

CHORUS:
   C    A
Or free me
F              G                     C      A
I just want to feel what life should be
F           G                    C 
I just want enough space to turn around
             A 
But your all f*cked
    F             G                  
And someday maybe you'll treat me like you


For the outro just play the intro again through twice, and end on C 
Аккорд CАккорд AАккорд FАккорд G