Портал для гитаристов
gtars.ru

Goldfinger — Fuck You And Your Cat

 Name: Fuck You and Your Cat
Band: Goldfinger
Tabbed By: Craig Hurley

Intro and slow half
G|--------------------|------------------------------------|
D|--------5/7/5-------|------------------------------------|
A|--10/-3---------3-0-|-----0-0-2-2------------------------|
E|--------------------|--3---------------------------------|

Fast part
G|-----------------------------|
D|-----------------------------|
A|-5-5-5--1-1-1--3-3-3---------|
E|----------------------3-3-3--|

G|-----------------------|----------------------|
D|---------------3-2-0---|--------------5-3-2---|
A|-1--1--1-1-1-1-------2-|-3-3-3--3-3-3-------3-|
E|-----------------------|----------------------|


Ending

G|-------------|
D|-------------|
A|-3-3--3-3-3--|
E|-------------|

This is all of it. Play the first part over and over many times, the 
second part a few times, and the end riffs once each.

Craig Hurley
-CaptainCraig@hotmail.com