Портал для гитаристов
gtars.ru

Goldfinger — Going Home

 e|---------------------------------------------------------------------------|
B|---7----------------------------------7------------------------------------|
G|--7-----3----4----4----4----6----6---7----3----6----6----------------------|
D|-7-----4----5----5----5----7----7---7----4----5----7-----------------------|
A|5-----4----5----5----5----7----7---5----4----5----7------------------------|
E|-----2----3----3----3----5----5--------2----3----5-------------------------|
  x6   x6   x6                       x6  x6   x9   x2

e|---------------------------------14----------------------------------------|
B|------------3-5-7-5-7-8-10-14-10----15-7-10-3-8-8-7-7-3--------------------|
G|---------------------------------------------------------------------------|
D|----4-5-7-9----------------------------------------------------------------|
A|5-5------------------------------------------------------------------------|
E|---------------------------------------------------------------------------|
(guitar 2)


(Verse 1)
  I can't do anything...                ....see you home tonight (second time)
e|-------------------------         -----------------------------------------|
B|---7---------------------         -----------------------------------------|
G|--7-----3----4----6------         -----------------------------------------|
D|-7-----4----5----7-------         -----------------------------------------|
A|5-----4----5----7--------         --------- 

Goldfinger — Going Home

   Intro and verse

   (on verse 2 p.m this riff)

       -----------------------------------------------------------------------------------------------|
       -----------------------------------------------------------------------------------------------|
       ------5555-------------------------------------------------------------------------------------|
       ------5555----44444----55555----7-7-7------------       ------3333----44444----55555----7-7-7--|
       --------------22222----33333----5-5-5----------------------------------------------------------|


       chorus

       -------------------------------------------------|
       -------------------------------------------------|
       ----999---777---555-----5---7---9----------------|
       ----999---777---555-----5---7---9----------------|
       ----777---555---333-----3---5---7----------------|

      thats pretty much all of the strumming
      theres some picking in the song but i cant seem to find it

      if this is totally wrong it makes sense cause its my first tab.
       had to work this one out cause i cant seem to find this song on
       at all.

 James Ryan
 London