Портал для гитаристов
gtars.ru

Goldfinger — Mable

 Song: Mable
Band: Goldfinger
Album:Goldfinger
tabbed by: matthew10_7@juno.com

intro
G:---------------------------------------------------------------
D:---------------------------------------------------------------2x
A:------------------4444444444444444-----------------------------
E:44444444-11111111----------------------------------------------

verse
G:---------------------------------------------------------------
D:---------------------------------------------------------------
A:------------------4444444444444444-----------------------------
E:44444444-11111111----------------------------------------------

G:---------------------------------------------------------------
D:---------------------------------------------------------------
A:------------------44444444/10-10-10-10-10-10-10-10-------------
E:44444444-11111111----------------------------------------------

pre chorus
G:---------------------------------------------------------------
D:---------------------------------------------------------------
A:6-66-66-66-6-4-33-11-44----------------------------------------
E:---------------------------------------------------------------

chorus
G:---------------------------------------------------------------
D:---------------------------------------------------------------
A:--66----33-3-44444444-66666666---------------------------------
E:4----11--------------------------------------------------------

G:---------------------------------------------------------------
D:---------------------------------------------------------------
A:--66----33-3-44444444-666--------------------------------------
E:4----11--------------------------------------------------------
verse 2 (different rhythm listen to song)
G:---------------------------------------------------------------
D:---------------------------------------------------------------
A:------------------4444444444444444-----------------------------
E:44444444-11111111----------------------------------------------
bridge
G:---------------------------------------------------------------
D:---------------------------------------------------------------
A:10-1010-1010-1010-10--11-13-15-17------------------------------
E:---------------------------------------------------------------

G:---------------------------------------------------------------
D:---------------------------------------------------------------
A:------------------44444444-66666666----------------------------
E:44444444-11111111----------------------------------------------

chorus
G:---------------------------------------------------------------
D:---------------------------------------------------------------
A:--66----33-3-44444444-66666666---------------------------------
E:4----11--------------------------------------------------------

G:---------------------------------------------------------------
D:---------------------------------------------------------------
A:--66----33-3-44444444-666--------------------------------------
E:4----11--------------------------------------------------------

order
intro 2x
verse
pre-chorus
chorus
verse
pre-chorus
chorus
verse 2 2x
bridge 
chorus

I had to learn this in my band so I am pretty sure this is right. 
 e-mail me if something is wrong.
 

Goldfinger — Mable

 -----------------------------------------------------------------------------
Mable – Goldfinger
-----------------------------------------------------------------------------

Good song by a great band! enjoy and rate!

Intro
e|--------------------------------------------------------|
B|-8-8--10-12--8-8--10-12-8-8--10-12-13--12-10-12-10------|
G|-x-x--x--x---x-x--x--x--x-x--x--x--x---x--x--x--x-------|
D|-5-5--7--9---5-5--7--9--5-5--7--9--10--9--7--9--7-------|
A|--------------------------------------------------------|
E|--------------------------------------------------------|

Intro and Verse
e|---------------------------------|
B|---------------------------------|
G|---------------555555555---------|
D|-555555-222222-555555555---------|
A|-555555-222222-333333333---------|
E|-333333-000000-------------------|

Pre Chorus
e|-------------------------------|
B|-------------------------------|
G|-7-7-7-7-7-7-55-44-22-4--------|
D|-x-x-x-x-x-x-55-44-22-4--------|
A|-5-5-5-5-5-5-33-22-00-2--------|
E|-------------------------------|

Chorus
e|-----------------------------------|
B|-----------------------------------|
G|----777----444-555555-7777777------|
D|-55-777-22-444-555555-7777777------|
A|-55-555-22-222-333333-5555555------|
E|-33-----00-------------------------|

Intro x2
Verse only play after the bass part
Pre Chorus
Chorus x2
Intro 
Verse x2 (palm muted)
Pre Chorus
Chorus x2
Verse but clean and just picked
Pre chorus (but faster and not as muted)
Chorus x4

E-mail funkeymonkey10@hotmail.com!
===========================================================================