Портал для гитаристов
gtars.ru

Goldfinger — Open Your Eyes

 at the sart mute the song for the frirst 2 times

G------------------------------------------------
D------------------------------------------------
A------------------------------------------------
E--000-77777-333-10-10-10-10-10------------------

and the second time you play it add the bit at the end dont mute it

G-------------------------333--------------------
D------------------------------------------------
A------------------------------------------------
E--000---77777--333-10-10------------------------

then play the same as the first part just not muted and it should sound right
listen to the song to get the tming right 

Goldfinger — Open Your Eyes

 ------------------------------------------------------------
			     OPEN YOUR EYES - GOLDFINGER
------------------------------------------------------------

By: Andrew M.  This is my first tab.  Awesome song.  enjoy

Tuning: Standard 

Intro/verses: (low volume w/ low distortion)
 (All palm muted)(play twice)
e|---------------------------------7-7-7-------------------|
B|---------------------------------7-7-7-------------------|
G|---------------------------------7-7-7-------------------|
D|---------------------------------------------------------|
A|-------2-2-2-2-2-------5-5-5-5-5-------------------------|
E|-0-0-0-----------3-3-3-----------------------------------|
                                   |played on last time|
Main Rift/Chorus: (Distrotion)
e|---------------------------------------------------------|
B|---------------------------------------------------------|
G|-------4-4-4-4-4-------7-7-7-7-7-------------------------|
D|-2-2-2-4-4-4-4-4-5-5-5-7-7-7-7-7--X2---------------------|
A|-2-2-2-2-2-2-2-2-5-5-5-5-5-5-5-5-------------------------|
E|-0-0-0-----------3-3-3-----------------------------------|

Verse X6

Chorus X4

Verse X6

Chorus X4

Bridge 1:  (the little high pitch solo)
e|---------------------------------------------------------|
B|----------9-----------9----------------------------------|
G|-8-----8-----8-----8------(times 2)----------------------|
D|----9-----------9----------------------------------------|
A|---------------------------------------------------------|
E|---------------------------------------------------------|

Bridge 2: (low volume w/ low distortion)
(Played 8 times progressively becoming power chords after 4th time)
e|---------------------------------------------------------|
B|---------------------------------------------------------|
G|---------------------------------------------------------|
D|---------------------------------------------------------|
A|-------2-2-2-2-2-------5-5-5-5-5-------------------------|
E|-0-0-0-----------3-3-3-----------------------------------|

Chorus X6

End With:
e|---------------------------------------------------------|
B|----------9-----------9----------------------------------|
G|-8-----8-----8-----8-------------------------------------|
D|----9-----------9--------2-2--2-2------------------------|
A|-------------------------2-2--2-2------------------------|
E|-------------------------0-0--0-0------------------------| 

Goldfinger — Open Your Eyes

 ------------------------------------------------------------
			     OPEN YOUR EYES - GOLDFINGER
------------------------------------------------------------

By: Aaron (Basically I just made some Corrections To Andrew M's Version)

Tuning: Standard 

Intro/verse: 
 
e|---------------------------------(7-7-7)-----------------|
B|---------------------------------(7-7-7)-Play second time|
G|---------------------------------(7-7-7)-----------------|
D|---------------------------------------------------------|
A|-------2-2-2-2-2-------5-5-5-5-5-------------------------|
E|-0-0-0-----------3-3-3-----------------------------------|
 PM. . . . . . . . . . . . . . . .                                   
Pre Chorus:
e|-------------7-7-7---|
B|-------------7-7-7---|
G|-------------7-7-7---|
D|-5-----4-------------|
A|-5-x10-4-x10---------|
E|-3-----2-------------|

Main Riff/Chorus: Heavy Distrotion
e|---------------------------------------------------------|
B|---------------------------------------------------------|
G|-------4-4-4-4-4-------7-7-7-7-7-------------------------|
D|-2-2-2-4-4-4-4-4-5-5-5-7-7-7-7-7--X2---------------------|
A|-2-2-2-2-2-2-2-2-5-5-5-5-5-5-5-5-------------------------|
E|-0-0-0-----------3-3-3-----------------------------------|


Bridge Riff:  Play (E B G D) behind the solo
e|---------------------------------------------------------|
B|----------9-----------9----------------------------------|
G|-8-----8-----8-----8------(times 2)----------------------|
D|----9-----------9----------------------------------------|
A|---------------------------------------------------------|
E|---------------------------------------------------------|

Bridge Riff 2: 
Slowly play the power chords after a few times
e|---------------------------------------------------------|
B|---------------------------------------------------------|
G|---------------------------------------------------------|
D|---------------------------------------------------------|
A|-------2-2-2-2-2-------5-5-5-5-5-------------------------|
E|-0-0-0-----------3-3-3-----------------------------------|



End With:
e|---------------------------------------------------------|
B|----------9-----------9----------------------------------|
G|-8-----8-----8-----8-------------------------------------|
D|----9-----------9--------2-2--2-2------------------------|
A|-------------------------2-2--2-2------------------------|
E|-------------------------0-0--0-0------------------------| 
Аккорд EАккорд BАккорд GАккорд D

Goldfinger — Open Your Eyes

 riff 1
e|-------------------------                         e|--(7)-
b|-------------------------                         b|--(7)-                     
g|-------------------------  X 2 second time play   g|--(7)- at the end
d|-------------------------                         d|------
a|--------2-2-2-2----5-5-5-                         a|------
E|0-0-0-0--------3-3-------                         E|------

this is played at the end of 1st verse
e|----------(7)-
b|----------(7)-
g|---9~--4--(7)-
d|---9~--4------
a|---7~--2------
E|--------------

Chorus
   E  B  G  D
e|------------
b|------------
g|----4-----7-
d|-2--4--5--7-  
a|-2--2--5--5-
E|-0-----3----

E        B       G   D
Wake up, wake up woahoooohhh
E        B       G   D
Wake up, wake up Wooahahohhh
E        B             G               D
A shot to the head, they're better off dead
E        B           G     D
well ya wake up, wake up wooahahoooh

play riff 1 again

finish second verse with 

e|---------------(7)-
b|---------------(7)-
g|-9-9-9--4-4-4--(7)-   (might be a bit of picking in there!)
d|-9-9-9--4-4-4------
a|-7-7-7--2-2-2------
E|-------------------

Chorus

little solo thingy
e|-------------------------------------------------------
b|------------------------8------------------------------
g|-9-9-9-9-9-9-9--9---9-------9-----9-9-9-9--9---9---9/0-
d|-9-9-9-9-9-9-9----9---9---9---9---9-9-9-9----9---9-----
a|-7-7-7-7-7-7-7--------------------7-7-7-7--------------
E|-------------------------------------------------------

riff 1 again but with E played in it

   E
e|---
b|---
g|---
d|-2-
a|-2-
E|-0-

play chorus again

then the first bit of the solo then the E bit

sorry if that sounds weird, but u gotta listen to it to understand! 
Аккорд EАккорд BАккорд GАккорд DАккорд A

Goldfinger — Open Your Eyes

 Artist: Goldfinger
Song: Open Your Eyes
Album: Open Your Eyes
Tabbed by: Ben Godby         beniliusbob@hotmail.com

None of the versions of this song on this site are correct... there's actually
a couple things wrong with them. So here it is, 100% correct, I tabbed this with
another guy who has a really good ear and it's not like it's hard in the first
place, the other people who tabbed this song are just retarded.

*  = harmonic
PM = palm mute

Intro/Verse
e|---------------------------------|
B|---------------------------------|
G|---------------------------------|
D|---------------------------------|
A|---------2-2-2-2---------5-5-5-5-|
E|-0-0-0-0---------3-3-3-3---------|
PM..................................

Pre-Chorus
e|------------*5*--|
B|------------*5*--|
G|------------*5*--|
D|-7-----5---------|
A|-5-x16-3-x16-----|
E|-----------------|
PM............

Chorus
e|---------------------------------|
B|---------------------------------|
G|---------------------------------|
D|---------4-4-4-4---------7-7-7-7-|
A|-2-2-2-2-2-2-2-2-5-5-5-5-5-5-5-5-|
E|-0-0-0-0---------3-3-3-3---------|

Bridge
Guitar 1
e|-------------|
B|-------------|
G|-------------|
D|-------5-----|
A|-2-----3-x16-|
E|-0-x16-------|

Guitar 2
e|-0---0---0---0---|
B|---0---0---0---0-|
G|-----------------|
D|-----------------|
A|-----------------|
E|-----------------|

There's (technically) a third guitar too, just scratching the pick over the
humbuckers and messing around... not exactly tough, but it's punk.

And that's pretty much it... outro is an E5 sixteen times then a few crunchy
accented notes on a C5. That's it. 
Аккорд E5Аккорд C5

Goldfinger — Open Your Eyes

 Artist: Goldfinger
Songname: Open your eyes

intro:

r - let note ring
m - mute note

This is the whole song. It's a good song, but not a hard bassline.
There are some slight rhythm variations here and there, but it's
pointless tabbing them out.

Intro/Chorus x2

G---------------------------------------
D---------------------------------------
A---------------------------5-5-5-5-5---
E-0-0-0---7-7-7-7---3-3-3---------------

Verse x4

G---------------------------------------
D---------------------------------------
A-7-7-7---------------------5-5-5-5-5---
E---------7-7-7-7---3-3-3---------------

Pre-Chorus x1

G---------------------------------------
D---------------------------------------
A-3r------------------------------------
E----------7r---------------------------

Intro/Chorus x4

G---------------------------------------
D---------------------------------------
A---------------------------5-5-5-5-5---
E-0-0-0---7-7-7-7---3-3-3--------------- 

Verse x4

Pre-Chorus x1

Intro/Chorus x4

Bridge x2

G---------------------------------------------------------------------
D---------------------------------------------------------------------
A-7-0-7-0-7-0-7-0-7-0-7-0-7-0-7-0---8-8-8-8-8-8-8-8-------------------
E-----------------------------------------------------8-8-8-8-8-8-8-8-

G---------------------------------------
D---------------------------------------
A---------------------------------------
E-0-0r---0-0m---------------------------

Intro/Chorus x6

Outro x1

G-----------------------------------------------
D-----------------------------------------------
A-7-0-7-0-7-0-7-0-7-0-7-0-7-0-7-0---8-8---8-8---
E-----------------------------------------------