Портал для гитаристов
gtars.ru

Goldfinger — Spokesman

 Intro/Pre verse riff

E----------------------------------------------------------------
B----------------------------------------------------------------
G--4---4---4---4---4---------------------------------------------
D--4-2-4-2-4-2-4-2-4---------------------------------------------
A--2-2-2-2-2-2-2-2-2---------------------------------------------
E----0---0---0---0-----------------------------------------------

Verse
E----------------------------------------------------------------
B----------------------------------------------------------------
G--4-4-4-4-4-4-4-----------------6-6-6-6-6-6-6-6------4-4-4-4-4-4
D--4-4-4-4-4-4-4-4-4-4-4-4-4-4-4-6-6-6-6-6-6-6-6--2-4-4-4-4-4-4-4  X2
A--2-2-2-2-2-2-2-4-4-4-4-4-4-4-4-4-4-4-4-4-4-4-4--2-4-2-2-2-2-2-2
E----------------2-2-2-2-2-2-2-2------------------0-2------------

Pre Chorus
E----------------------------------------------------------------
B----------------------------------------------------------------
G--2-2-2---------------------------------------------------------
D--2-2-2---------------------------------------------------------
A--0-0-0--4-5-7-5-4-4--------------------------------------------
E----------------------------------------------------------------

Chorus
E-------------------------------------------------------------------------
B-------------------------------------------------------------------------
G--------------------7-7-7-7-4-4-4-4-----------------77777777-------------
D--5-5-5-5--7-7-7-7--7-7-7-7-4-4-4-4-5-5-5-5-7-7-7-7-77777777-7777777----- X2
A--5-5-5-5--7-7-7-7--5-5-4-4-2-2-2-2-5-5-5-5-7-7-7-7-55555555-7777777-----
E--3-3-3-3--5-5-5-5------------------3-3-3-3-5-5-5-5----------5555555-----

Intro/Pre Verse riff
Verse X2
Pre Chorus
Chorus X2
Intro/Pre Verse riff
Verse X2 (palm muted)
Pre Chorus
Chorus X2
Intro/Pre Chorus riff about 4 times
Chorus X3
Intro/Pre Chorus riff X2

And thats it. One of Goldfingers best

Check out Just a day By Feeder for more amazing tabs by Timmy 

Goldfinger — Spokesman

 -----------------------------------------------------------------------------
			     spokesman - Goldfinger
-----------------------------------------------------------------------------
Tabbed by: blink1028x89
Email: sk8er1028@aol.com

Tuning: standard
intro
e|---------------------------------------------------------------------------
B|---------------------------------------------------------------------------
G|---------------------------------------------------------------------------
D|-4-4---4-4---4-4-4---4-----------------------------------------------------
A|-2-22--2-2---2-2-2---2-----------------------------------------------------
E|----0-0---0-0-----0-0------------------------------------------------------
verse: 2nd time palm mute and 3rd time palm mute.
e|---------------------------------------------------------------------------
B|---------------------------------------------------------------------------
G|---------------------------------------------------------------------------
D|-4----------------------------------6----------------9---4-----------------
A|-2222222222222222-4-----------------4444444444444444-7-4-2-----------------
E|------------------2222222222222222---------------------2-------------------
these next parts my guitar teacher tabbed out i dont what or when they come
in but im sure you can figure it out if you want to.
e|---------------------------------------------------------------------------
B|---------------------------------------------------------------------------
G|-6-------------------------------------------------------------------------
D|-7-------------------------------------------------------------------------
A|-7-------------------------------------------------------------------------
E|-5-------------------------------------------------------------------------

e|---------------------------------------------------------------------------
B|---------------------------------------------------------------------------
G|---------------------------------------------------------------------------
D|-------7-7-4---------------------------------------------------------------
A|-5-7---5-4-2-5-7-----------------------------------------------------------
E|-3-5---------3-5-----------------------------------------------------------

e|---------------------------------------------------------------------------
B|---------------------------------------------------------------------------
G|---------------------------------------------------------------------------
D|-7-------------------------------------------------------------------------
A|-5-55555555----------------------------------------------------------------
E|---------------------------------------------------------------------------

e|---------------------------------------------------------------------------
B|---------------------------------------------------------------------------
G|---------------------------------------------------------------------------
D|---------------------------------------------------------------------------
A|-77777777------------------------------------------------------------------
E|-55555555------------------------------------------------------------------

this tab is right if u can figure out were the parts go and the beat and when
to palm mute but my guitar teacher is confusing sumtimes so when he tabbed those
parts he didnt tell what the hell they were (what parts they were). but its right
i did the intro and verse he did the rest.


| /  slide up
|   slide down
| h  hammer-on
| p  pull-off
| ~  vibrato
| +  harmonic
| x  Mute note
=============================================================================== 

Goldfinger — Spokesman

 Intro                                				GOLDFINGER
E/        							SPOKESMAN
B/							OPEN YOUR EYES
G/44        44         4      44         4
D/44  22   44  22  4  2  44   22  4
A/22  22    22  22  2 2   22  22  2
E/       00          00     0         00

Verse
E
B
G 4  3  6    666    4
D 4  3  6    666    4
A 2  1  4    444    2
E

PRE COROUS
E
B
G
D5 7 9  5
A3 5  7 3
E

CHOROUS
E
B
G
D5  7  9 7  5 7  9
A5  7  9 7  5 7  9
E3  5  7  5  3 5  7


INTRO                              VERSE X2

VERES X2                         PRE    COROUS

PRE COROUS                    COROUS 2

COROUS X2                      INRO A LITTLE DIFFERENT WITH SOME PM

INTRO                            COROUS X 3       AND INTRO 1 MORE TIME 
Аккорд E/Аккорд B/Аккорд G/44Аккорд D/44Аккорд A/22Аккорд EАккорд BАккорд GАккорд DАккорд AАккорд D5Аккорд A3Аккорд A5Аккорд E3

Goldfinger — Spokesman

 -------------------------------------------------------------------------------
			     SONG NAME - Band Name
-------------------------------------------------------------------------------

Tabbed By : mr. penis
e-mail: leadguitarist@yahoo.com

Tuning:lowest to hightest EADG
bass solo is around the end 2nd from last chorus

G|--------------------------------------------------------------------------|
D|--------------------------------------------------------------------------|
A|----2-5--------4-7------9-7-5---------------------------------------------|
E|---3---------5-----------5-5-5--------------------------------------------|

G|--------------------------------------------------------------------------|
D|--------------------------------------------------------------------------|
A|---2-5------4-7------5----------------------------------------------------|
E|--3--------5----------5---5555--------------------------------------------|

G|---------------------------------------------------------------------------|
D|---------------------------------------------------------------------------|
A|-2-2-2-2-2--xx-2-2-2-2-2---------------------------------------------------|
E|--0-0-0-0-------0-0-0-0----------------------------------------------------| 

Goldfinger — Spokesman

 Intro
G-----------
D-----------
A-2-2-2-2-2-
E--0-0-0-0--

Verse
G--------------------------------------------------------
D--------------------------------------------------------
A-2222222222222222----------------4444444444444444-----2-
E-----------------2222222222222222----------------00-22--

Pre Chorus
G-------
D-------
A-0-0-0-
E-------

Chorus
G--------------------------------------------------------------------
D--------------------------------------------------------------------
A------------------5555-4444-22222222-----------------55555555-------
E-33333333-55555555------------------33333333-55555555--------555555-

Bridge
G------------------------------------------------
D------------------------------------------------
A-2-2-2-2-2-2-2-2-2-2-2---2-2-2-2-2-222-2222222--
E--0-0-0-0-0-0-0-0-0-0-000-0-0-0-0-0---0-------0-

Outro
G-------------------------
D-------------------------
A-2-2-2-2-2---2-2-2-2-2-2-
E--0-0-0-0-000-0-0-0-0-0-- 
Аккорд G-----------Аккорд D-----------Аккорд G-------Аккорд D-------Аккорд A-0-0-0-Аккорд E-------

Goldfinger — Spokesman

 -----------------------------------------------------------------------------
Spokesman - Goldfinger
-----------------------------------------------------------------------------

This is Goldfingers new single, and what a great song it is!! seen them live 
the other night so I know this is correct! So please rate what you think!!!!

Enjoy!

Intro   
e|-----------------------|
B|-----------------------|
G|-4---4---4---4---4-----|
D|-4-2-4-2-4-2-4-2-4-----|
A|-2-2-2-2-2-2-2-2-2-----|
E|---0---0---0---0-------|

Verse
e|----------------------------------------|
B|----------------------------------------|
G|-4444444---------6666666-------44444----|
D|-4444444-4444444-6666666-22-44-44444----|
A|-2222222-4444444-4444444-22-44-22222----|
e|---------2222222---------00-22----------|

Pre Chorus
e|-------------------XXX-------|
B|-------------------XXX-------|
G|-2-2-2-------------XXX-------|
D|-2-2-2-------------XXX-------|
A|-0-0-0-44-55-77-55-XXX-------|
E|-------------------XXX-------|

Chorus
e|---------------------------------------------------------------------|
B|---------------------------------------------------------------------|
G|----------------7777777777-444444-----------------7777777------------|
D|-555555-7777777-7777777777-444444-5555555-7777777-7777777-7777777----|
A|-555555-7777777-5555544444-222222-5555555-7777777-5555555-7777777----|
E|-333333-5555555-------------------3333333-5555555---------5555555----|
						   *******

Intro
Verse x2
Pre Chorus
Chorus x2
Intro
Verse (palm muted) x2
Pre Chorus
Chorus x2
Intro x4
Chorus x3
Intro x2

That’s about it enjoy and please rate or whatever! E-Mail 
funkeymonkey10@hotmail.com
=============================================================================