Портал для гитаристов
gtars.ru

Goldfinger — Stay

 Stay by Goldfinger

verse 1
A-----------------3-3-3-3-5-5-5-5---------------------------------
E-3-3-3-3-5-5-5-5---------------------------------------------------

verse1 pt 2
A2-2-2-2-5-5-4-5-4-2

chorus's
A-5-5-7-7-3-3-3-5-5-7-7-10-10-10-10

verse 2
A---------------------------------3-3-3-3-3-3-3-3-5-5-5-5-5-5-5-5-
E-3-3-3-3-3-3-3-3-5-5-5-5-5-5-5-5---------------------------------

do part 2 of cerse 1 here

verse 3
A---------------------------------------33333333333333333-55555555555555
E-33333333333333333333-5555555555555555---------------------------------

Done Tabbed by Ian Higbee