Портал для гитаристов
gtars.ru

Goldfinger — Tell Me

 Song: Tell Me
Artist: Goldfinger
Album: Open Your Eyes
Tabbed By: Chris Johnert
Email: stratmancj@hotmail.com


Intro:

 |             G    A   D |
E|------------------------|
B|------------------------|
G|----------------------7-|  4x
D|-------------5-5--7-7-7-|
A|-5--4--2--0--5-5--7-7-5-|
E|-------------3-3--5-5---|


Verse:

 | D       C#      B       | G       A      |
E|-------------------------|----------------|
B|-------------------------|----------------|
G|-7-------6-------4-------|----------------|  2x
D|-7-(4x)--6-(4x)--4-(8x)--|-5-------7------|
A|-5-------4-------2-------|-5-(8x)--7-(8x)-|
E|-------------------------|-3-------5------|

 | G       B       G       A |
E|---------------------------|
B|---------------------------|
G|---------4-----------------|
D|-5-------4-(8x)--5-------7-|
A|-5-(8x)--2-------5-(8x)--7-|
E|-3---------------3-------5-|


Chorus 1:

 |                           |                              |
E|---------------------------|------------------------------|
B|---------------------------|------------------------------|
G|---------------------------|------------------------------|
D|---------------------------|------------------------------|  2x
A|-5--4--2--0--2--2--0--0----|-0--5--4--2--0--2--2--4--4--5-|
E|-------------------------2-|------------------------------|


Chorus 2:

 |             G       A       D      |
E|------------------------------------|
B|------------------------------------|
G|-----------------------------7------|  4x
D|-------------5-------7-------7-(4x)-|
A|-5--4--2--0--5-(4x)--7-(4x)--5------|
E|-------------3-------5--------------|


Bridge:

 | B       G      | B       D       G      |
E|----------------|------------------------|
B|----------------|------------------------|
G|-4--------------|-4-------7--------------|
D|-4-(8x)--5------|-4-(8x)--7-(4x)--5------|
A|-2-------5-(8x)-|-2-------5-------5-(4x)-|
E|---------3------|-----------------3------|

 | B       G      | B       A |
E|----------------|-----------|
B|----------------|-----------|
G|-4--------------|-4---------|
D|-4-(8x)--5------|-4-(8x)--7-|
A|-2-------5-(8x)-|-2-------7-|
E|---------3------|---------5-|

Intro
Verse
Chorus 1
Verse
Chorus 2
Bridge
Chorus 1

Please e-mail me with any comments....stratmancj@hotmail.com
 
Аккорд GАккорд AАккорд DАккорд C#Аккорд B

Goldfinger — Tell Me

 Palm mute: x
Slide: /

Chorus: (play this 4x)
e-------------------------------------------------------------------------------
B-------------------------------------------------------------------------------
G-------------------------------------------------------------------------------
D---------------5-----7-----12--------------------------------------------------
A---------------5x5---7x5---12x5------------------------------------------------
E--10--9--7--5--3-----5-----10--------------------------------------------------
   Tell me what it's like to be with you,
   Remind me of the things we used to do,
   Tell me that this time will never end,
   Tell me what it's like tell me again.

Verse 1: (Distortion, play this 2x)
e-------------------------------------------------------------------------------
B-------------------------------------------------------------------------------
G--7----6-----------------------------------------------------------------------
D--7x4--6x4--9----5----7--------------------------------------------------------
A--5----4----9x8--5x8--7x8------------------------------------------------------
E------------7----3----5--------------------------------------------------------
   Everytime you stay,
   It never feels quite the same,
   And everytime you go,
   It hurts a way you'll never know.

Pre-Chorus: (Distortion)
e-------------------------------------------------------------------------------
B-------------------------------------------------------------------------------
G-------------------------------------------------------------------------------
D--5----2----5----7-------------------------------------------------------------
A--5x8--2x8--5x8--7-(Let the last chord ring)-----------------------------------
E--3----0----3----5-------------------------------------------------------------
   I guess your stories,
   Make me feel like it's all right now.

Chorus: (Bass only, play 4x)
e-------------------------------------------------------------------------------
B-------------------------------------------------------------------------------
G-------------------------------------------------------------------------------
D-------------------------------------------------------------------------------
A-------------------------------------------------------------------------------
E--10--9--7--5--3-3/5-5/10------------------------------------------------------
   Tell me what it's like to be with you,
   Remind me of the things we used to do,
   Tell me that this time will never end,
   Tell me what it's like tell me again.

Verse 2: (Distortion, play this 2x)
e-------------------------------------------------------------------------------
B-------------------------------------------------------------------------------
G--7----6-----------------------------------------------------------------------
D--7x4--6x4--9----5----7--------------------------------------------------------
A--5----4----9x8--5x8--7x8------------------------------------------------------
E------------7----3----5--------------------------------------------------------
   x    x    x    x    x
   Everything I fear,
   Show's itself everytime your here,
   And everything I know,
   Leaves with you everytime that you go.

Pre-Chorus: (Distortion)
e-------------------------------------------------------------------------------
B-------------------------------------------------------------------------------
G-------------------------------------------------------------------------------
D--5----2----5----7-------------------------------------------------------------
A--5x8--2x8--5x8--7-(Let the last chord ring)-----------------------------------
E--3----0----3----5-------------------------------------------------------------
   I wish your stories,
   Could erase all the things that I said.

Chorus: (Distortion, play this 4x)
e-------------------------------------------------------------------------------
B-------------------------------------------------------------------------------
G-------------------------------------------------------------------------------
D---------------5-----7-----12--------------------------------------------------
A---------------5x5---7x5---12x5------------------------------------------------
E--10--9--7--5--3-----5-----10--------------------------------------------------
   Tell me what it's like to be with you,
   Remind me of the things we used to do,
   Tell me that this time will never end,
   Tell me what it's like tell me again.

Verse 3: (Distortion)
e-------------------------------------------------------------------------------
B-------------------------------------------------------------------------------
G-------------------------------------------------------------------------------
D--9----2----9----10----5----9----2----9----14--12--7---------------------------
A--9x8--2x8--9x8--10x2--5x2--9x8--2x8--9x8--14--12--7---------------------------
E--7----0----7----8-----3----7----0----7----12--10--5---------------------------
   You look that way, 
   (You look that way),
   Don't wanna see you look that way,
   You talk that way,
   (You talk that way),
   Don't wanna feel this way.

Chorus: (play this 2x)
e-------------------------------------------------------------------------------
B-------------------------------------------------------------------------------
G-------------------------------------------------------------------------------
D-------------------------------------------------------------------------------
A-------------------------------------------------------------------------------
E--10--9--7--5--3-3/5-5/10------------------------------------------------------
   Tell me what it's like to be with you,
   Remind me of the things we used to do,

Chorus:
e--------------------------------------------------------------------10---------
B-------------------------------------------------------------------------------
G--------------------------------------------------------------------11---------
D--------------------------------------------------------------------12---------
A-------------------------------------12-10-9-7-5-4------------------12---------
E--10--9--7--5--3-3-7-3-5-5-9-5-10-10---------------3-3-7-3-5-5-9-5--10---------
   And Tell me how this time will never end,
   So tell me what it's like tell me again.

Thats it everyone. It's 100% accurate. But if you find a flaw email me at
Whaleman882002@yahoo.com