Портал для гитаристов
gtars.ru

Goldfinger — The Innocent

 Goldfinger with Good Charlotte and Mest - The Innocent.
 Tabbed by Greg Mousseau, Moose2113@hotmail.com.
  
ARTIST: Goldfinger with Good Charlotte and Mest:
SONG:  The innocent (NYC sept. 11 tribute)
TABBED BY: Greg Mousseau (moose2113@hotmail.com)

(goto www.goldfingermusic.com to download this song)

INTRO / VERSE

E--------------------------------------------------------------------
B--------------------------------------------------------------------
G---7-7-7-7-7-7-7-7--------------------------------------------------
D---7-7-7-7-7-7-7-7-7-7-7-7-7-7-7-7-9-9-9-9-9-9-9-9--5-5-5-5-5-5-5-5-
A---5-5-5-5-5-5-5-5-7-7-7-7-7-7-7-7-9-9-9-9-9-9-9-9--5-5-5-5-5-5-5-5-
e-------------------5-5-5-5-5-5-5-5-7-7-7-7-7-7-7-7--3-3-3-3-3-3-3-3-


Chorus
E-----------------------------------            
B-----------------------------------            |
G-7-7-7-7---------------------------            |
D-7-7-7-7---7-7-7--9-9-9-9--4-4-4---            |
A-5-5-5-5---7-7-7--9-9-9-9--4-4-4---            |
e-----------5-5-5--7-7-7-7--2-2-2---             
                                                    x2
E----------------------------------------         /
B----------------------------------------        /
G----------------------------------------       |
D-5-5-5-5---7-7-7-7-9-9-9-9-9-9-9-9------       |
A-5-5-5-5---7-7-7-7-9-9-9-9-9-9-9-9------       |
e-3-3-3-3---5-5-5-5-7-7-7-7-7-7-7-7------       /


Solo

E---------------------------------------------------------------------
B---------------------------------------------------------------------
G-------------------------------------------------------4---6--7--9---
D-------------------------------------------------------4---6--7--9---
A---5-5-5-7-5-4---4-4-0-2-2-2-0-2---4-5-5-5-0-4-4-4-0---2---4--5--7---
e---------------------------------------------------------------------

E--------------------------------------------------------------------
B--------------------------------------------------------------------
G--------------------------------------------------------------------
D-0-0-4-0-5-0-4-0--0-0-4-0-5-0-4-0--0-0-4-0-5-0-7-0-9-0-7-0-5-0------
A--------------------------------------------------------------------
e--------------------------------------------------------------------

E-------------------------------------------------------
B---------------------------------------7------7--------
G-----------------------------------------7-----7-------
D---0-0-4-0-5-0-4-0--0-0-4-0-5-0-4----------7----7------
A-------------------------------------------------------
e-------------------------------------------------------
                                       ^^^^resonate^^^^
                                        

That's mostly it, minor variations but easy to figure out
If you have any questions/comments please e-mail me at:  Moose2113@hotmail.com
Thanks 
:: Ultimate Guitar Archive :: 
http://www.ultimate-guitar.com 



 

Goldfinger — The Innocent

 -------------------------------------------------------------------------------
             The Innocent - Goldfinger, Good Charlotte, Mest
-------------------------------------------------------------------------------

Tabbed by:Sean 
Email:good_starting@hotmail.com

Tuning:normal

^:strum up
v:strum down
*:palm mute
p:pull off
#:harmonic

Intro: i think its on piano but here it is anyway

e|--10-9-------10-9-------10--10--10-----------------------------------------|
B|-------10---------10--------x---10--10-------------------------------------|
G|----------11---------11-----12------11-------------------------------------|
D|------------------------------------12-------------------------------------|
A|---------------------------------------------------------------------------|
E|---------------------------------------------------------------------------|

Verse:
   [-----------------P.M---------------------------]
e|-vvvvvvvvvvvvvvvvvvvvvvvvvvvvvvvvvvvvvvvvvvvvvvvv--------------------------|
B|---------------------------------------------------------------------------|
G|-77777777------------------------77777777----------------------------------|
D|-777777777777777799999999555555557777777777777777--------------------------|
A|-555555557777777799999999555555555555555577777777--Pick Slide for 8 beats--|
E|---------555555557777777733333333--------55555555--------------------------|

Heres the strum pattern so i dont get complaints

e|---------------------------------------------------------------------------|
B|-vv^^v^------------------vv^^v^--------------------------------------------|
G|-777777vv^^v^vv^^v^vv^^v^777777vv^^v^-v^v-v^V-V^v-V^v----------------------|x2
D|-777777777777999999555555777777777777-555-555-555-555----------------------|
A|-555555777777999999555555555555777777-555-555-555-555----------------------|
E|-------555555777777333333------555555-333-333-333-333----------------------|

Chorus:

e|---------------------------------------------------------------------------|
B|-vvv^----------------------------------------------------------------------|
G|-7777vvvv^vvv^vvvv^vvv^vvv^vvv^v^v^----------------------------------------|x2
D|-7777777779999444445555777799999999----------------------------------------|*note that the last
A|-5555777779999444445555777799999999----------------------------------------| v^ of each set is
E|-----555557777222223333555577777777----------------------------------------| very quick

e|---------------------------------------------------------------------------|
B|----------v----------------------------------------------------------------|
G|--vv^-vv^-7----------------------------------------------------------------|
D|--555-777-7----------------------------------------------------------------|
A|--555-777-5----------------------------------------------------------------|
E|--333-555------------------------------------------------------------------|

Verse 2:
(above is the notes that guitar 2 plays and when [all on the G string])

     7   7   9   9   7   7   7   7   7   7   9   9  7   7   7   7   
e|---------------------------------------------------------------------------|
B|-**v-**v-------------------------**v-**v-----------------------------------|
G|-777-777-**v-**v-**v-**v-**v-**v-777-777-**v-**v-v^v-v^v-v^v-v^v-----------|
D|-777-777-777-777-999-999-555-555-777-777-777-777-555-555-555-555-----------|
A|-555-555-777-777-999-999-555-555-555-555-777-777-555-555-555-555-----------|
E|---------555-555-777-777-333-333---------555-555-333-333-333-333-----------|

e|---------------------------------------------------------------------------|
B|-vv^^v^------------------vv^^v^--------------------------------------------|
G|-777777vv^^v^vv^^v^vv^^v^777777vv^^v^-v^v-v^V-V^v-V^v----------------------|
D|-777777777777999999555555777777777777-555-555-555-555----------------------|
A|-555555777777999999555555555555777777-555-555-555-555----------------------|
E|-------555555777777333333------555555-333-333-333-333----------------------|

Chorus:

e|---------------------------------------------------------------------------|
B|-vvv^----------------------------------------------------------------------|
G|-7777vvvv^vvv^vvvv^vvv^vvv^vvv^v^v^----------------------------------------|x2
D|-7777777779999444445555777799999999----------------------------------------|*note that the last
A|-5555777779999444445555777799999999----------------------------------------| v^ of each set is
E|-----555557777222223333555577777777----------------------------------------| very quick

e|---------------------------------------------------------------------------|
B|----------v----------------------------------------------------------------|
G|--vv^-vv^-7----------------------------------------------------------------|
D|--555-777-7----------------------------------------------------------------|
A|--555-777-5----------------------------------------------------------------|
E|--333-555------------------------------------------------------------------|

Solo: its kick ass! you can do it two ways, both are fine, first:

e|---------------------------------------------------------------------------|
B|-v-^-v-^-v-^-v-^-v-^------v-^-v-^---^-v-^----**v-**v-**v-**v---------------|
G|-7-7-7-9-7-6-6-4-4-4-v-^--6-7-7-7-V-6-6-6-v--444-666-777-999---------------|
D|-x-x-x-x-x-x-x-x-x-x-7-5--x-x-x-x-7-x-x-x-7--xxx-xxx-xxx-xxx---------------|
A|-5-5-5-7-5-4-4-2-2-2-x-x--4-5-5-5-x-4-4-4-x--222-444-555-777---------------|
E|---------------------5-3----------5-------5--------------------------------|

Or if you cant play octave chords or are lazy or whatever this sounds ok

e|---------------------------------------------------------------------------|
B|---------------------------------------------**v-**v-**v-**v---------------|
G|---------------------------------------------444-666-777-999---------------|
D|---------------------------------------------xxx-xxx-xxx-xxx---------------|
A|-5-5-5-7-5-4-4-2-2-2------4-5-5-5---4-4-4----222-444-555-777---------------|
E|---------------------5-3----------5-------5--------------------------------|

the Second part of the solo is:

e|---------------------------------------------------------------------------|
B|---------------------------------------------------------------------------|
G|---------------------------------------------------------------------------|
D|-0-0-4p0-5p0-4p0-2p0-4p0-5p0-4p0-0-0-4p0-5p0-7p0-9p0-7p0-5p0-4p0-----------|
A|---------------------------------------------------------------------------|
E|---------------------------------------------------------------------------|

e|---------------------------------------------------------------------------|
B|-----------------------------------7#-----7#-------------------------------|
G|-------------------------------------7#-----7#-----------------------------|
D|-0-0-4p0-5p0-4p0-2p0-4p0-5p0-4p0-------7#----------------------------------|
A|---------------------------------------------------------------------------|
E|---------------------------------------------------------------------------|

final Chorus:

e|---------------------------------------------------------------------------|
B|-v-------------------------------------------------------------------------|
G|-7-v-v-v-v-v--vvv^vvv^vvv^v^v^---------------------------------------------|
D|-7-7-7-9-4-4--5555777799999999---------------------------------------------|
A|-5-7-7-9-4-4--5555777799999999---------------------------------------------|
E|---5-5-7-2-2--3333555577777777---------------------------------------------|

e|---------------------------------------------------------------------------|
B|-vvv^----------------------------------------------------------------------|
G|-7777vvvv^vvv^vvvv^vvv^vvv^vvv^v^v^----------------------------------------|
D|-7777777779999444445555777799999999----------------------------------------|
A|-5555777779999444445555777799999999----------------------------------------| 
E|-----555557777222223333555577777777----------------------------------------| 

e|---------------------------------------------------------------------------|
B|------------------v----Between each chord lossen your fingers to-----------|
G|--v-v-v-v-v-v-v-v-7----cut it short instead of letting it ring-------------|
D|--5-5-5-5-7-7-7-7-7--------------------------------------------------------|
A|--5-5-5-5-7-7-7-7-5--------------------------------------------------------|
E|--3-3-3-3-5-5-5-5----------------------------------------------------------|

Outro:also sounds like piano but this is it

e|--10-9-------10-9-------10--10--10-------10-9--10--------------------------|
B|-------10---------10--------x---10--10---------10--------------------------|
G|----------11---------11-----12------11-------------------------------------|
D|------------------------------------12-------------------------------------|
A|---------------------------------------------------------------------------|
E|---------------------------------------------------------------------------|

and if you can swing it with your band just play the chorus over
that softly with an acoustic. 
Аккорд G

Goldfinger — The Innocent

 -----------------------------------------------------------
MEST/GOLDFINGER/GOOD CHARLOTTE  ---  THE INNOCENT
-----------------------------------------------------------

THIS SONG WAS DONE IN MEMORY OF ALL THE INNOCENT PEOPLE THAT DIED LAST 11/9/01
ANY COMMENTS GOOD/BAD PLEASE SEND TO macrocefalo_@hotmail.com

verse
-------------------------------------------------------
-------------------------------------------------------
--555555-----------------------------------------------
--------555555--777777--333333-------------------------

chorus
-------------------------------------------------------
-------------------------------------------------------
-55----------------------------55----------------------
---555-77-222-33-55-777777777----555-77-222-33-55-777777

-------------------------------------------------------
-------------------------------------------------------
-------------------------------------------------------
--33-55-7777777---------------------------------------- 
Аккорд BAD

Goldfinger — The Innocent

 The Innocent 
Goldfinger/Mest/Good Charlotte
Tabbed by Mich

Verse:1st verse do it 3x then after the chorus doit 2x 
G--------------------------------------------------------
D--------------------------------------------------------
A--5-5-5-5-----------------------5-5-5-5----------------- x2
E---------5-5-5-5-7-7-7-7-5-3-3-3-------5-5-5-5-3-3-3-3--

Chorus
G-----------------------------------------------
D-----------------------------------------------
A----5-5-5---------2-2-2------------------------ x2
E----------5-5-5-5-------2-2-2-3-3-3-5-5-5-7-7-7
then 
G-----------------------------------------------
D-----------------------------------------------
A-------------------5-5-5-5--------------------- x1
E----3-3-3-3-5-5-5-5----------------------------

Guitar solo is the verse twice 

Goldfinger — The Innocent

 Goldfinger featuring Mest and Good Charlotte
“The Innocent”
WTC Tribute song

I’m writing this for 1 guitar although the actual song contains 2.  I don’t have the time 
to tab out the entire sets, the only thing guitar two really does that’s noticeable is in 
Verse Two where he goes:

E|-------------------
B|-------------------
G|-7-7-9-9-7-7-7-7---  constantly.
D|-------------------
A|-------------------
E|-------------------

Verse 1
Light Distortion
E|------------------------------------------------------------------
B|------------------------------------------------------------------
G|-7-7-7-7-7-7-7-7-------------------------------------------------- 
D|-7-7-7-7-7-7-7-7-7-7-7-7-7-7-7-7-9-9-9-9-9-9-9-7-5-5-5-5-5-5-5-5--
A|-5-5-5-5-5-5-5-5-7-7-7-7-7-7-7-7-9-9-9-9-9-9-9-7-5-5-5-5-5-5-5-5--
E|-----------------5-5-5-5-5-5-5-5-7-7-7-7-7-7-7-5-3-3-3-3-3-3-3-3--

E|------------------------------------------------------------------
B|------------------------------------------------------------------
G|-7-7-7-7-7-7-7-7-----------------====================------------- 
D|-7-7-7-7-7-7-7-7-7-7-7-7-7-7-7-7------pick-scrap------------------
A|-5-5-5-5-5-5-5-5-7-7-7-7-7-7-7-7-====================-------------
E|-----------------5-5-5-5-5-5-5-5----------------------------------

Heavy Distortion                                          
E|-----------------------------------------------          |
B|-----------------------------------------------          |
G|-7---7-7-7-------------------------------------          |
D|-7---7-7-7-7---7-7-7--9---9-9-7--5-5-5-5-5-5---          | 
A|-5---5-5-5-7---7-7-7--9---9-9-7--5-5-5-5-5-5—--          | 
E|-----------5---5-5-5--7---7-7-5--3-3-3-3-3-3---          |Verse 1: X2
                                                           |
E|----------------------------------------------------     |Verse 2: X1
B|----------------------------------------------------     |
G|-7---7-7-7------------------------------------------     | 
D|-7---7-7-7-7---7-7-7-5-5-5---5-5-5---5-5-5---5-5-5--     |
A|-5---5-5-5-7---7-7-7-5-5-5---5-5-5---5-5-5---5-5-5--     |
E|-----------5---5-5-5-3-3-3---3-3-3---3-3-3---3-3-3--     |
P.M.                   |_|     |_|     |_|     |_|        /

 Chorus
Heavy Distortion
E|----------------------------------------------------------------
B|----------------------------------------------------------------
G|-7-7----------4-4----------------------------------------------- X2
D|-7-7--7-7--7--4-4--4-4--4--55555555-77777777-9999999999999999---
A|-5-5--7-7--7--2-2--4-4--4—-55555555-77777777-9999999999999999---
E|------5-5--5-------2-2--2--33333333-55555555-7777777777777777---

E|----------------------------------------------------------------
B|----------------------------------------------------------------
G|---------------7--7-7--=====================-------------------- X1
D|-5--5---7--7---7--7-7-------pick scrap--------------------------
A|-5--5---7--7---5--5-5--=====================--------------------
E|-3--3---5--5----------------------------------------------------

Interlude
Heavy Distortion
E|---------------------------------------------------
B|---------------------------------------------------
G|---------------------------------------------------
D|---------------------------------------------------
A|-5-5-5-7-5-4-4-4-0-2-2-2-0-2-/-4-5-5-5-7-5-4-4-5---
E|---------------------------------------------------

E|------------------------------
B|------------------------------
G|----------------------7-7-7---
D|----5-5-5-7-7-7-9-9-9-7-7-7---
A|----5-5-5-7-7-7-9-9-9-5-5-5---
E|----3-3-3-5-5-5-7-7-7---------
P.M.  |_|   |_|   |_|   |_|

E|------------------------------------------------------------------
B|------------------------------------------------------------------
G|------------------------------------------------------------------
D|-0-0-4-0-5-0-4-0-2-0-4-0-5-0-4-0-0-0-4-0-5-0-7-0-9-0-7-0-5-0-4-0--
A|------------------------------------------------------------------
E|------------------------------------------------------------------

E|----------------------------------------------------------------
B|----------------------------------7-----7-----------------------
G|------------------------------------7-----7---------------------
D|-0-0-4-0-5-0-4-0-2-0-4-0-5-0-4-0------7-------------------------
A|----------------------------------------------------------------
E|----------------------------------------------------------------
						 Resonate

Song Pattern
Piano Intro
Verse 1
Chorus
Verse 2
Chorus
Interlude
Chorus
Piano Outro
Lyrics
Verse 1
The start of Armageddon 
And it’s just another day
We all saw the news, nothing to say
So many friends are missing
Family members gone
So we all prayed that God help them be strong
And now we stand together
Remembering that day
The lives we live we’ll never be the same

Chorus
We don’t know why
The Innocent die
Will this world ever find a way to change
And we don’t know why
But we know it’s not right
We don’t know why so many had to die
We don’t know why so many had to die

Verse 2
Hate is turned to others
For their religion or their skin
But hate can’t solve the problems it began
Everyone is angry
People are afraid
And no one knows what decisions will be made

Chorus
We don’t know why
The Innocent die
Will this world ever find a way to change
And we don’t know why
But we know it’s not right
We don’t know why so many had to die
We don’t know why so many had to die

Chorus
We don’t know why (don’t know why)
The Innocent die (don’t know why)
Will this world ever find a way to change
And we don’t know why (don’t know why)
But we know it’s not right (don’t know why)
We don’t know why so many had to die
We don’t know why so many had to die

Outro
I don’t know why
The Innocent die
Will any of us be the same
Will any of this ever be the same