Портал для гитаристов
gtars.ru

Page Jimmy — Dazed And Confused

 #----------------------------------PLEASE NOTE---------------------------------#
#This file is the author's own work and represents their interpretation of the #
#song. You may only use this file for private study, scholarship, or research. #
#------------------------------------------------------------------------------##
From: hong@aix520.informatik.uni-leipzig.de

DAZED AND CONFUSED BY JIMMY PAGE

Hi, world
Does somebody like solo? Try this! the solo part of dazed and confused
by page. Its realy a challenge, isn't?
 b  :bend
 r  :release b
 X  :rest
 / :slide
 !9!:Harmonic
Just hear to the record to get the right timing and the feeling for special
notes(above). If there are any mistakes, (i dont think so 'cos i got it
printed) please forgive me!
!!!One request:!!!
Could someone tab out for me the solo of  --Since ive been loving you-- ?
please email to me, yeah! Thanx !

  hong@aix520.informatik.uni-leipzig.de

----------------------------------------------------------------------------

e:----------------------------------------------------------1512----1512---|
B:---12--12-1512--------12-1512----------12-12-1512-X-12-------12-------12|
G:14b16------------14b16----------14-14b16-----------------------------------|
D:---------------------------------------------------------------------------|
A:---------------------------------------------------------------------------|
E:---------------------------------------------------------------------------|


e:1512---1512--1512------12-15b17-15-12----12-----------------------------|
B:------12-----12-----12-12-12-------------15-15-1512-----------------------|
G:-----------------------------------------------------1412----12-14-12-14--|
D:-----------------------------------------------------------14--------------|
A:---------------------------------------------------------------------------|
E:---------------------------------------------------------------------------|


e:---------------------------------------------------------------------------|
B:--------15-----------------------------------------------------------------|
G:12-14b16----161412-1412---------------------------------!9!b!11!--9b11--|
D:--------------------------14-12-14-12/1412----12/1412--0-----------------|
A:--------------------------------------------14-----------------------------|
E:---------------------------------------------------------------------------|


e:---------------------------------------------------------------------------|
B:---------------------------------------------------------------------------|
G:---7-9-7-7-76-65-6-76-4-643-4-2-2