Портал для гитаристов
gtars.ru

Placebo — Blue American

 
     G#      Em     B
e |-------|------|------|
B |-------|------|------|
G |-------|------|------|
D |-------|------|------|
A |---6---|---2--|---1--|
E |---4---|---0--|---0--|

intro: G#,Em,G#,Em
             G#                Em
I wrote this novel just for you
          G#                    Em 
It sounds pretentious but it`s true
             G#               Em
I wrote this novel just for you
                 G#
That`s why it`s vulgar
               Em
That`s why it`s blue
       B         Em  
And I say,thank you
        B        Em
And I say,thank you

I wrote this novel just for mom
For all the mommy thing she`s done
For all the time she showed me wrong
For all the time she sang God`s song
       B             Em      
And I say thank you mom
B        Em
  Hello mom
B           Em  
  Thank you mom
B       Em
  Hi mom

I read a book about uncle Tom
Where whitey bastard made a bomb
But now Ebonics rule our song
Those motherfucker got it wrong
And I ask
Who is uncle Tom?
Who is uncle Tom?
Who is uncle Tom?
You are

I read a book about thyself
Said I should get expensive help
Go fix my head
Create some wealth
Put my neurosis on a shelf
But I don`t care for myself
I don`t care for myself
I don`t care for myself
I don`t care

I wrote this novel just for you
I`m so pretentious,yes it`s true
              G#              Em
I wrote this novel just for you
          G#
Just for you
Just for you 
Аккорд G#Аккорд EmАккорд BАккорд GАккорд DАккорд AАккорд E

Placebo — Blue American

 intro: Am;Fm;Am;Fm
             Am                Fm
I wrote this novel just for you
          Am                    Fm
It sounds pretentious but it`s true
             Am               Fm
I wrote this novel just for you
                 Am
That`s why it`s vulgar
               Fm
That`s why it`s blue
       C         Fm  
And I say,thank you
        C        Fm
And I say,thank you

I wrote this novel just for mom
For all the mommy thing she`s done
For all the time she showed me wrong
For all the time she sang God`s song
       C             Fm      
And I say thank you mom
C        Fm
  Hello mom
C           Fm  
  Thank you mom
C       Fm
  Hi mom

I read a book about uncle Tom
Where whitey bastard made a bomb
But now Ebonics rule our song
Those motherfucker got it wrong
And I ask
Who is uncle Tom?
Who is uncle Tom?
Who is uncle Tom?
You are

I read a book about thyself
Said I should get expensive help
Go fix my head
Create some wealth
Put my neurosis on a shelf
But I don`t care for myself
I don`t care for myself
I don`t care for myself
I don`t care

I wrote this novel just for you
I`m so pretentious,yes it`s true
              Am              Fm
I wrote this novel just for you
          Am
Just for you
          Fm
Just for you
C

Kagda igrajetje, igraitje luchshe s mediatarom...i pastaraitjesj 1 i 2 strunu 
njezadjevatj.. 
Аккорд FmАккорд AmАккорд C

Placebo — Blue American

 Tabbed By Rekon (First Tab)
Feel Free To Use This tabs
Placebo
Blue American

Standard Tuning Sounds As Good 99% correct sound

E---------------------------
B---------------------------
G--3-3-3-----------3-3-3----
D--3-3-3---4-4-4---3-3-3--4-
A--1-1-1---4-4-4---1-1-1--4-
E----------2-2-2----------2-

E----------------
B----------------
G--3-3-3---------   X3
D--3-3-3---4-4-4-
A--1-1-1---4-4-4-
E----------2-2-2-  

E---------------------------
B---------------------------
G---------------------------
D--4-4-4--4-4-4--4-4-4--4---
A--2-2-2--4-4-4--2-2-2--4---
E--2-2-2--2-2-2--2-2-2--2---

E----------------
B----------------
G--3-3-3---------   X3
D--3-3-3---4-4-4-
A--1-1-1---4-4-4-
E----------2-2-2-


E---------------
B---------------
G---------------
D--4-4-4--4-4-4-    X4
A--2-2-2--4-4-4-
E--2-2-2--2-2-2-

Repeat Thats It Sound good

Rekon Out.........