Портал для гитаристов
gtars.ru

Placebo — Brick Shithouse

 Author/Artist: Placebo
Title: Brick Shithouse
Tabbed by: Woody
Email: woody3333@hotmail.com


Intro

G|----------------------|
D|----------------------|
A|----------------------|
E|-12----12----12----|

Verse

G|----------------------------------------|
D|----------------------------------------|
A|-7-7-7-7-7-7-7-7-/-14-14-14-14-14-14-14-|
E|----------------------------------------|

G|----------------------------------------|
D|----------------------------------------|
A|-7-7-7-7-7-7-7-7-/-19-19-19-19-19-19-19-|
E|----------------------------------------|

Transition(the intro is sometimes played instead of this)

G|-------------|
D|-------------|
A|---6-6-------|
E|-7-----7-12-|

Chorus

G|-----------------------------------------|
D|-----------------------------------------|
A|-7-7-7-7-7-7-7-7-7-7-7-7-7-7-7-7-7-7-7-7-|
E|-----------------------------------------|

G|-----------------------------------------|
D|-----------------------------------------|
A|-2-2-2-2-2-2-2-2-2-2-2-2-2-2-2-2-2-2-2-2-|
E|-----------------------------------------|