Портал для гитаристов
gtars.ru

Placebo — English Summer Rain

 ----------------------------------------------------------------------------
		        English summer rain - Placebo
----------------------------------------------------------------------------
Tabbed by: mucebo
Email:schep_vreugde_en_leef@hotmail.com

standard tuning

inro: computer thing + bass (look at my other tab)
high keyboard riff:
e|---------------------------------------------------|
B|-11------10----9---7---6---4---11------and repeat--|
G|----10------11---8---6---5---3----10---------------|
D|---------------------------------------------------|
A|---------------------------------------------------|
E|---------------------------------------------------|
 the other guitar:
e|--------------|--------------|--------------|--------------|
B|--------------|--------------|--------------|--------------|
G|--------------|--------------|-----3--------|--------------|
D|-----3--------|-----3--------|--------------|-----3--------|
A|-4-1---1-4--1-|-4-1---1-4--1-|-4-1---1-4--1-|-4-1---1-4--1-|
E|--------------|--------------|--------------|--------------|

and in the end these chords are played: 
e|---------------------------------------------------|
B|---------------------------------------------------|
G|--6-6-6-6---10-10---3-3-3-3------------------------|
D|--6-6-6-6---10-10---3-3-3-3------------------------|
A|---------------------------------------------------|
E|---------------------------------------------------|

until now, these were the only things I could recognize to play on the guitar
listen to the song when these pieces are played, at the end all together, so at
least with three guitars, if you don't have a keyboard. for the bass-lines, look
at my other tab, whose very easy.
Placebo rocks!!!! 

Placebo — English Summer Rain

 -----------------------------------------------------------------------------
			  English Summer Rain - Placebo
-----------------------------------------------------------------------------

Tabbed By : Mucebo
e-mail: schep_vreugde_en_leef@hotmail.com

Tuning: standard
intro and the rest of the song:
G|---1-3---1-3---1-3---1-3---|
D|---------------------------| repeat this trough the whole song
A|-1-----1-------------------|
E|-------------2-----2-------|

when the drum stops playing in the middle of the song the bass plays this:
G|------------------------------------------------|
D|------------------------------------------------|
A|-1-1-1-1-1-1-1-1--------------------------------|
E|------------------2-2-2-2-2-2-2-2-2-------------|

you can choose yourself when you play the notes like this and when not, listen to
song and find it out! cheers!!!!