Портал для гитаристов
gtars.ru

Placebo — Every You And Every Me

 Em    C     D   Em
Sucker love is heaven sent
Em    C     D   Em
You pucker up, our passion?s spent
Em    C     D   Em
My hearts a tart, your body?s rent
Em    C     D   Em
My body?s broken, yours is spent
 
Am               G
Carve your name into my arm
G                     C
Instead of stressed, I lie here charmed
C                   G
Cause there?s nothing else to do
C             Em
Every me and every you

Sucker love, a box I choose
No other box I choose to use
Another love I would abuse
No circumstances could excuse
In the shape of things to come
Too much poison come undone
Cause there?s nothing else to do

Every me and every you
Every me and every you
Every me

Sucker love is known to swing
Prone to cling and waste these things
Pucker up for heavens sake
There?s never been so much at stake
I serve my head up on a plate
It?s only comfort, calling late
Cause there?s nothing else to do

Every me and every you
Every me and every you
Every me (2r)

Like the naked leads the blind
I know I?m selfish, I?m unkind
Sucker love I always find
Someone to bruise and leave behind
All alone in space and time
There?s nothing here but what here?s mine
Something borrowed, something blue

Every me and every you
Every me and every you
Every me (4r)
 
Аккорд EmАккорд CАккорд DАккорд AmАккорд G

Placebo — Every You And Every Me

 
[Intro (verse)]
 
 -----------------------------|
 -----------------------------|
 -----------------------------|
 |-6-6-6-6-6-6-6-6-6-6-6-6-8-8-8-8--------|
 |-4-4-4-4-4-4-4-4-4-4-4-4-6-6-6-6--------|
 ------5-5-5-5-7-7-7-7--------|
 
 -----------------------------|
 -----------------------------|
 -----------------------------|
 |-6-6-6-6-6-6-6-6-6-6-6-6----------------|
 |-4-4-4-4-4-4-4-4-4-4-4-4-7-7-7-7--------|
 ------5-5-5-5-5-5-5-5--------|
 
 Sucker love is heaven sent...
 
 [Chorus]
 
 |-----0-----0-----0-----0-----0-----0-----0-----0-|
 |-----0-----0-----0-----0-----0-----0-----0-----0-|
 |-----6-----6-----6-----6-----6-----6-----6-----6-|
 |-----7-----7-----7-----7-----6-----6-----6-----6-|
 |-----7-----7-----7-----7-4-4-4-4-4-4-4-4-4-4-4-4-|
 |-5-5-5-5-5-5-5-5-5-5-5-5-------------------------|
 
 Carve your name into my arm...
 
 [All other goes just the same way]
 
 [Full Lyrics]
 
 Sucker love is heaven sent...
 You pucker up our passion`s spent
 My heart`s a tart your body`s rent
 My body`s broken yours is bent
 
 Carve your name into my arm...
 Instead of stressed I lie here charmed
 Cuz there`s nothing else to do
             Every me and every you
 
 Sucker love a box I choose
 No other box I choose to use
 Another love I would abuse
 No circumstances could excuse
 
 In the shape of things to come
 Too much poison come undone
 Cuz there`s nothing else to do,
 Every me and every you.
 
 Every me and every you,
 Every Me...he
 
 Sucker love is known to swing.
 Prone to cling and waste these things.
 Pucker up for heaven`s sake.
 There`s never been so much at stake.
 
 I serve my head up on a plate.
 It`s only comfort, calling late.
 Cuz there`s nothing else to do,
 Every me and every you.
 
 Every me and every you, |
 Every Me...he           | 2
 
 Like the naked leads the blind.
 I know I`m selfish, I`m unkind.
 Sucker love I always find,
 Someone to bruise and leave behind.
 
 All alone in space and time.
 There`s nothing here but what here`s mine.
 Something borrowed, something blue.
 Every me and every you.
 
 Every me and every you, |
 Every Me...he           | 4
 
 
 [End]
 
 |-4-4-4-4-4-4-4-4--------------------------------|
 |-4-4-4-4-4-4-4-4--------------------------------|
 |-4-4-4-4-4-4-4-4--------------------------------|
 |-6-6-6-6-6-6-6-6-6-6-6-6-6-6-6-6----------------|
 |-6-6-6-6-6-6-6-6-6-6-6-6-6-6-6-6----------------|
 ------4-4-4-4-4-4-4-4----------------|
 
 [Acoustic Version Chord]
 
 |-0---------------------------------------|
 |-0---------------------------------------|
 |-6---------------------------------------|
 |-6---------------------------------------|
 |-4---------------------------------------|
 ------------------------------|
 
 (The rest is the same only slower)
 
 

 

Placebo — Every You And Every Me

 Verse/Intro:
C |------------------------------------|
C |------------------------------------|
G#|-6-6-6-6-6-6-6-6--6-6-6-6--8-8-8-8--|
D#|-6-6-6-6-6-6-6-6--6-6-6-6--7-7-7-7--|
A#|-4-4-4-4-4-4-4-4--4-4-4-4--6-6-6-6--|
F |------------------5-5-5-5--7-7-7-7--|

C |---------------------------------------|
C |---------------------------------------|
G#|-6-6-6-6-6-6-6-6-6-6-6-----------------|
D#|-6-6-6-6-6-6-6-6-6-6-6-7-7-7-7-6-6-6-6-|
A#|-4-4-4-4-4-4-4-4-4-4-4-4-4-4-4-4-4-4-4-|
F |-----------------4-4-4-5-5-5-5-5-5-5-5-|

Pre-chorus/chorus (Stefan's part):
C |---------0-0-------------0-0-----------0-0-------------0-0-0|
C |---------0-0-------------0-0-----------0-0-------------0-0-0|
G#|-6-6-6-6-6-6-6-6-6-6-6-6-6-6-6-6-6-6-6-6-6-6-6-6-6-6-6-6-6-6|
D#|-7-7-7-7-7-7-7-7-7-7-7-7-7-7-7-7-6-6-6-6-6-6-6-6-6-6-6-6-6-6|
A#|-0-0-0-0-0-0-0-0-0-0-0-0-0-0-0-0-4-4-4-4-4-4-4-4-4-4-4-4-4-4|
F |------------------------------------------------------------|

C |---------0-0-0-------------0-0-0-0-0-0-0-0-----------0-0-0-|
C |---------0-0-0-------------0-0-0-0-0-0-0-0-----------0-0-0-|
G#|-6-6-6-6-6-6-6-6-6-6-6-6-6-6-6-6-6-6-6-6-6-6-6-6-6-6-6-6-6-|
D#|-7-7-7-7-7-7-7-7-7-7-7-7-7-7-7-7-7-7-7-7-7-7-7-7-7-7-7-7-7-|
A#|-7-7-7-7-7-7-7-7-7-7-7-7-7-7-7-7-7-7-7-7-7-7-7-7-7-7-7-7-7-|
F |-5-5-5-5-5-5-5-5-5-5-5-5-5-5-5-5-0-0-0-0-0-4-4-4-4-4-4-4-4-|

Pre-chorus/chorus (Brian's part):
C |-----------------------------------------------------|
C |-----------------------------------------------------|
G#|-----------------------------------------------------|
Eb|-----------------------------------------------------|
Bb|-<1>-<1>-<1>-<1>-<1>-<1>-<1>-<1>-<1>-<1>-<1>-<1>-<1>-|
F |-----------------------------------------------------|

C |---------------------------------|
C |---------------------------------|
G#|---------------------------------|
Eb|---------------------------------|
Bb|-10-10-10-10-10-10-8-8-8-8-8-8-8-|
F |---------------------------------|

C |-----------------------------------------------------|
C |-----------------------------------------------------|
G#|-----------------------------------------------------|
Eb|-----------------------------------------------------|
Bb|-<1>-<1>-<1>-<1>-<1>-<1>-<1>-<1>-<1>-<1>-<1>-<1>-<1>-|
F |-----------------------------------------------------|

C |---------------------------------------|
C |---------------------------------------|
G#|---------------------------------------|
Eb|---------------------------------------|
Bb|-<1>-----------------------------------|
F |---<2>-<2>-<2>-<2>-<2>-<2>-<7>-<7>-<7>-|

Outro (Brian)
Played on live version:
C |--------------------------------------------|
C |--------------------------------------------|
G#|-15-15-15-15-15-15--15-15-15-13-13-13-13-13-|
Eb|-12-12-12-12-12-12--12-12-12-12-12-12-12-12-|
Bb|-0--0--0--0--0--0---0--0--0--0--0--0--0--0--|
F |--------------------------------------------|

C |----------------------------------|
C |----------------------------------|
G#|-13-15-15-15-15-15-13-13-13-13-13-|
D#|-12-12-12-12-12-12-12-12-12-12-12-|
A#|-0--0--0--0--0--0--0--0--0--0--0--|
F |----------------------------------|

Last chorus (2:32) fill with tremolo effect:
C |-0---0-|
C |-0---0-|
G#|-4---4-|
D#|-------|
A#|-------|
F |-------|

Weird keyboard part, near end:
C |-16---12----16--12--------------19--16--12-|
C |-16---12----16--12--------------19--16--12-|
G#|--------------------11--13-11-13-----------|
Eb|-------------------------------------------|
Bb|-------------------------------------------|
F |-------------------------------------------| 
Аккорд CАккорд F