Портал для гитаристов
gtars.ru

Placebo — My Sweet Prince

 bass cums in at 0:23

note: i have only put the time at the top  for a little while just to give u an idea 
to play


                                                            0:23-ish
------------------|------------------|------------------|-------------------|
------------------|------------------|------------------|-------------------|
------------------|------------------|------------------|--0----------------|
------------------|------------------|------------------|-------------------|


                                        0:29
------------------|------------------|-------------------|------------------|
------------------|------------------|-------------------|------------------|
------------------|------------------|--4----------------|------------------|
------------------|------------------|-------------------|------------------|


                     0:35
------------------|-------------------|------------------|------------------|
------------------|-------------------|------------------|------------------|
------------------|--3----------------|------------------|------------------|
------------------|-------------------|------------------|------------------|


     0:41                                                    0:47
-------------------|------------------|------------------|-------------------|
-------------------|------------------|------------------|-------------------|
--4----------------|------------------|------------------|--0----------------|
-------------------|------------------|------------------|-------------------|


                                          0:53                 0:57
------------------|------------------|-------------------|-------------------|
------------------|------------------|-------------------|-------------------|
------------------|------------------|-------------------|-------------------|
------------------|------------------|--0----------------|----------0--------|


                     0:59                     1:02
------------------|-------------------|-------------------|------------------|
------------------|-------------------|-------------------|------------------|
------------------|--0----------------|----------0--------|------------------|
------------------|-------------------|-------------------|------------------|


    1:05                   1:08                              1:11
-------------------|-------------------|------------------|-------------------|
-------------------|-------------------|------------------|-------------------|
-------------------|-------------------|------------------|--0----------------|
--0----------------|----------0--------|------------------|-------------------|


        1:14                              1:17
-------------------|------------------|-------------------|------------------|
-------------------|------------------|-------------------|------------------|
----------0--------|------------------|--4----------------|------------------|
-------------------|------------------|-------------------|------------------|


                      1:23
------------------|-------------------|------------------|------------------|
------------------|-------------------|------------------|------------------|
------------------|--3----------------|------------------|------------------|
------------------|-------------------|------------------|------------------|


 1:29                                                       1:36
-------------------|------------------|------------------|-------------------|
-------------------|------------------|------------------|-------------------|
--4----------------|------------------|------------------|--3----------------|
-------------------|------------------|------------------|-------------------|


                                          1:41
------------------|------------------|-------------------|------------------|
------------------|------------------|-------------------|------------------|
------------------|------------------|--4----------------|------------------|
------------------|------------------|-------------------|------------------|


 this fill starts at 1:45
----------------------|--------------------|------------------|
-----------6----11----|--10----------------|------------------|
------8---------------|--------------------|------------------|
----------------------|--------------------|------------------|


              1:53   1:54
-------------------|-------------------|------------------|------------------|
-------------------|-------------------|------------------|------------------|
--------------3----|--4----------------|------------------|------------------|
-------------------|-------------------|------------------|------------------|


    1:59                                           2:04     2:05
-------------------|------------------|-------------------|-------------------|
-------------------|------------------|-------------------|-------------------|
--0----------------|------------------|--------------2----|-------------------|
-------------------|------------------|-------------------|--0----------------|


     2:08                               2:11                         2:14
-------------------|------------------|-------------------|-------------------|
-------------------|------------------|-------------------|-------------------|
-------------------|------------------|--0----------------|----------0--------|
----------0--------|------------------|-------------------|-------------------|


both at 2:16  v       v                          2:20
-------------------|-------------------|-------------------|-------------------|
-------------------|-------------------|-------------------|-------------------|
--------------2----|-------------------|-------------------|-------------------|
-------------------|--0----------------|----------0--------|-------------------|


  2:24                      2:27                            2:29
-------------------|-------------------|------------------|-------------------|
-------------------|-------------------|------------------|-------------------|
--0----------------|----------0--------|------------------|--4----------------|
-------------------|-------------------|------------------|-------------------|

------------------|------------------|-------------------|------------------|
------------------|------------------|-------------------|------------------|
------------------|------------------|--3----------------|------------------|
------------------|------------------|-------------------|------------------|

-------------------|-------------------|------------------|-------------------|
-------------------|-------------------|------------------|-------------------|
--------------3----|--4----------------|------------------|--------------4----|
-------------------|-------------------|------------------|-------------------|

-------------------|------------------|--------------------|
-------------------|------------------|--------------------|
--0----------------|------------------|----------0----2----|
-------------------|------------------|--------------------|

--------------------|-------------------|--------------------|
--------------------|-------------------|--------------------|
--------------------|-------------------|---------------2----|
--0------------0----|----------0--------|------0-------------|

--------------------|-------------------|---------------------|
--------------------|-------------------|---------------------|
--0------------0----|----------0--------|------0---------2----|
--------------------|-------------------|-----------4---------|

--------------------|-------------------|-------------------|
--------------------|-------------------|-------------------|
--------------------|-------------------|-------------------|
--0------------0----|----------0--------|------0------------|

--------------------|-------------------|-------------------|
--------------------|-------------------|-------------------|
--0------------0----|----------0--------|------0------------|
--------------------|-------------------|-------------------|

-------------------|------------------|------------------|-------------------|
-------------------|------------------|------------------|-------------------|
--4----------------|------------------|------------------|--3----------------|
-------------------|------------------|------------------|-------------------|

------------------|-------------------|-------------------|------------------|
------------------|-------------------|-------------------|------------------|
------------------|--------------3----|--4----------------|------------------|
------------------|-------------------|-------------------|------------------|

---------------------|-------------------|------------------|
---------------11----|-------------------|------------------|
------7--------------|--0----------------|------------------|
---------------------|-------------------|------------------|

--------------------|--------------------|-------------------|
--------------------|--------------------|-------------------|
----------0----2----|--------------------|-------------------|
--------------------|--0------------0----|----------0--------|

--------------------|--------------------|-------------------|
--------------------|--------------------|-------------------|
---------------2----|--0------------0----|----------0--------|
------0-------------|--------------------|-------------------|

---------------------|--------------------|-------------------|
---------------------|--------------------|-------------------|
------0---------2----|--------------------|-------------------|
-----------4---------|--0------------0----|----------0--------|

--------------------|--------------------|-------------------|
--------------------|--------------------|-------------------|
---------------2----|--0------------0----|----------0--------|
------0-------------|--------------------|-------------------|

-------------------|-------------------|------------------|------------------|
-------------------|-------------------|------------------|------------------|
------0------------|--4----------------|------------------|------------------|
-------------------|-------------------|------------------|------------------|

-------------------|------------------|------------------|-------------------|
-------------------|------------------|------------------|-------------------|
--3----------------|------------------|------------------|--4----------------|
-------------------|------------------|------------------|-------------------|

------------------|---------------------|-------------------|------------------|
------------------|---------------11----|-------------------|------------------|
------------------|------7--------------|--0----------------|------------------|
------------------|---------------------|-------------------|------------------|

-------------------|--------------------|-------------------|
-------------------|--------------------|-------------------|
--------------2----|--------------------|-------------------|
-------------------|--0------------0----|----------0--------|

---------------------|--------------------|-------------------|
---------------------|--------------------|-------------------|
-----------2----4----|--0------------0----|----------0--------|
------0--------------|--------------------|-------------------|

---------------------|--------------------|-------------------|
---------------------|--------------------|-------------------|
------0---------2----|--------------------|-------------------|
-----------4---------|--0------------0----|----------0--------|

--------------------|--------------------|-------------------|
--------------------|--------------------|-------------------|
---------------2----|--0------------0----|----------0--------|
------0-------------|--------------------|-------------------|

---------------------|--------------------|-------------------|
---------------------|--------------------|-------------------|
------0---------2----|--------------------|-------------------|
-----------4---------|--0------------0----|----------0--------|

---------------------|--------------------|-------------------|
---------------------|--------------------|-------------------|
-----------2----4----|--0------------0----|----------0--------|
------0--------------|--------------------|-------------------|

---------------------|--------------------|-------------------|
---------------------|--------------------|-------------------|
------0---------2----|--------------------|-------------------|
-----------4---------|--0------------0----|----------0--------|

---------------------|--------------------|-------------------|
---------------------|--------------------|-------------------|
-----------2----4----|--0------------0----|----------0--------|
------0--------------|--------------------|-------------------|

-------------------|-------------------|------------------|------------------|
-------------------|-------------------|------------------|------------------|
------0------------|--4----------------|------------------|------------------|
-------------------|-------------------|------------------|------------------|

-------------------|------------------|------------------|-------------------|
-------------------|------------------|------------------|-------------------|
--3----------------|------------------|------------------|--4----------------|
-------------------|------------------|------------------|-------------------|

------------------|------------------|-------------------|------------------|
------------------|------------------|-------------------|------------------|
------------------|------------------|--3----------------|------------------|
------------------|------------------|-------------------|------------------|

------------------||
------------------||
------------------||
------------------|| 

Placebo — My Sweet Prince

 Placebo Guitar Tablature - Printable version
Release: "Without You I´m Nothing"

Tabbed By Scott Andrews

This is the main guitar part used in all of the verses of the song, etc.
Note: Stefan plays guitar on this song.

C  --------------4-------------4-------------4--------------4--
C  -----------5-------------5-------------5--------------5-----
G# --------6-------------5-------------6--------------6--------
D# -----6-------------6-------------6--------------6-----------
A# --4-------------3-------------4--------------0--------------
F  ------------------------------------------------------------

"Me and the dragon..." bit (Let notes ring):

C  -----------------------4-------------------------4---------
C  --------------------5-------------------------5------------
G# --------6--------6---------------6--------6----------------
D# -----6-----------------------6-----------------------------
A# -------------------------0------------0--------------------
F  -0----------0----------------------------------------------


"You are the one..." bit:

C  ----------------------------------4----------
C  -------------------------------5-------------
G# --------6--------6-------6-------------------
D# ----6---------6-------6----------------------
A# ---------------------------------------------
F  -О---------0-------0-------0-----------------

C  ---------------------------------4-----------
C  ------------------------------5--------------
G# --------6--------6------6--------------------
D# ----6--------6-------6-----------------------
A# -0--------0-------0-------0------------------
F  ---------------------------------------------

Never thought you´d make me perspire.
Never thought I´d do you the same.
Never thought I´d fill with desire.
Never thought I´d feel so ashamed.

Me and the dragon can chase all the pain away.
So before I end my day, remember..
My sweet prince, you are the one
My sweet prince
you are the one

Never thought I´d have to retire
Never thought I´d have to abstain
Never thought all this could back fire
Close up the hole in my vain

Me and my valuable friend
can fix all the pain away
So before I end my day
remember
My sweet prince
you are the one
My sweet prince
you are the one
you are the one
you are the one
you are the one
you are the one

Never thought I´d get any higher
Never thought you´d fuck with my brain
Never thought all this could expire
Never thought you´d go break the chain

Me and you baby,
still flush all the pain away
So before I end my day
remember
My sweet prince
you are the one
My sweet prince
you are the one
you are the one
you are the one
you are the one
you are the one
you are the one
you are the one
you are the one
you are the one
My sweet prince
My sweet prince

Special thanks to Nastya for Placebo and for sending me this tab !!!:)


 
Аккорд CАккорд G#Аккорд D#Аккорд A#Аккорд F