Портал для гитаристов
gtars.ru

Placebo — Plasticine

 -------------------------------------------------------------------------------
			     Plasticine - Placebo
-------------------------------------------------------------------------------

Tabbed by:DasPop
Email:schep_vreugde_en_leef@hotmail.com

Standard Placebo tuning
CAPO 1° FRET
(all relative to capo)

intro = verse (x2)
e|-----------------------------------------------------------------|
B|-----------------------------------------------------------------|
G|-4-4-4-4-4-4-4-4-4-4-4-4-4-4-------------------------------------|
D|-4-4-4-4-4-4-4-4-4-4-4-4-4-4-6-6-6-6-6-6-6-6-6-6-6-6-6-6-8-8-8-8-|x2
A|-2-2-2-2-2-2-2-2-2-2-2-2-2-2-6-6-6-6-6-6-6-6-6-6-6-6-6-6---------|
E|-----------------------------4-4-4-4-4-4-4-4-4-4-4-4-4-4---------|

e|-----------------------------------------------------------------------------|
B|-----------------------------------------------------------------------------|
G|-9-9-9-9-9-9-9-9-9-9-9-9-9-9-6-6-6-6-6-6-6-8-8-8-8-8-8-8-8-8-8-8-8-8-8-9-9-9-|
D|-9-9-9-9-9-9-9-9-9-9-9-9-9-9-6-6-6-6-6-6-6-8-8-8-8-8-8-8-6-6-6-6-6-6-6-9-9-9-|
A|-7-7-7-7-7-7-7-7-7-7-7-7-7-7-4-4-4-4-4-4-4-6-6-6-6-6-6-6-6-6-6-6-6-6-6-7-7-7-|
E|-----------------------------------------------------------------------------|

e|-----------------------|
B|-----------------------|
G|-9-9-9-9-9-9-9-9-9-9-9-|
D|-9-9-9-9-9-9-9-9-9-9-9-|
A|-7-7-7-7-7-7-7-7-7-7-7-|
E|-----------------------|

chorus
e|------------------------|
B|------------------------|
G|-x--x-------------------|
D|-x--x-------------------|x4
A|-3--2-------------------|
E|-x--x-0-2-3-0-2-4-0-2-4-|

bridge
guitar one
e|----------------------------------------------------------|
B|-6-6-6-6-6-6-6-8-8-8-8-8-8-8--8-8-8-8-8-8-8-6-6-6-6-6-6-6-|
G|-5-5-5-5-5-5-5-7-7-7-7-7-7-7--7-7-7-7-7-7-7-5-5-5-5-5-5-5-|
D|----------------------------------------------------------|x4
A|----------------------------------------------------------|
E|----------------------------------------------------------|

guitar two (after a few times guitar one)
e|----------------------------------------------------------------------------|
B|----------------------------------------------------------------------------|
G|-6-6-6-6-6-6-6-6-6-6-6-6-6-6-6-6-6-6-6-8-8-8-8-8-8-6-8-10-10-10-10-10-10-10-|
D|----------------------------------------------------------------------------|
A|----------------------------------------------------------------------------|
E|----------------------------------------------------------------------------|

e|---------------------------|
B|---------------------------|
G|-10-10-10b-10-10-10b-10-10-|
D|---------------------------|
A|---------------------------|
E|---------------------------|
chorus
outro
e|-------------------------------------------------------------|
B|-------------------------------------------------------------|
G|---------------------------------0-0-0-0-0-0-0-2-2-2-2-2-2-2-|
D|-9-6-6--6-6-6-6--9-6-6--6-6-6-6--2-2-2-2-2-2-2-3-3-3-3-3-3-3-|
A|-9-6-6--6-6-6-6--9-6-6--6-6-6-6--2-2-2-2-2-2-2-3-3-3-3-3-3-3-|x4
E|-7-4-4--4-4-4-4--7-4-4--4-4-4-4--0-0-0-0-0-0-0-1-1-1-1-1-1-1-|

I'm not shure about some parts, but I think it's a start.
chears! 

Placebo — Plasticine

 ----------------------------------------------------------------------------
			     PLASTICINE - Placebo
----------------------------------------------------------------------------
Tabbed by: Jesse Benedick
Email: JBMetal311@yahoo.com

Tuning: Standard

e|----------------------------------------|--8------5-----7-------5---8----|
B|--8-----5------4-4-4-4-4-4-4-4-4--------|--8------5-----7-------5---8----|
G|--9-----6-------------------------------|--10-----7-----9-------6---9----|
D|--10----7-------------------------------|--10-----7-----9-------7---10---|
A|--10----7-------------------------------|--8------5-----7-------7---10---|
E|--8-----5-------------------------------|-----------------------5---8----|
Guitar 1     (gradual half bend,then release) Riff 2
e|-----------------------|-------------------------------------------------|
B|--13~--12-13~----------|--5----8-----------------------------------------|
G|-----------------------|--6----9-----------------------------------------|
D|-----------------------|--7----10----------------------------------------|
A|-----------------------|--7----10----------------------------------------|
E|-----------------------|--5----8-----5-3-3-3--5-3--5-5-------------------|
(Guitar 2,end of riff 2)  Chorus
e|------------------------|------------------------------------------------|
B|------------------------|------------------------------------------------|
G|--11----13----13----11--|------------------------------------------------|
D|--11----13----13----11--|-6-6-6-6-6-6-6-6--7-7-7-7-7-7-7-7-9-7-7-7-9-7-7-|
A|--9-----11----11----9---|------------------------------------------------|
E|------------------------|------------------------------------------------|
 Breakdown Guitar 1        Guitar 2
e|-------------------------------------------------------------------------|
B|-------------------------------------------------------------------------|
G|-------------------------------------------------------------------------|
D|-7--9-9-9-9-9-9-9-9-9--11-11-11-11-11-11-11-12-11-11-11-12-11-11-11------|
A|-------------------------------------------------------------------------|
E|-------------------------------------------------------------------------|
 Guitar 2 continued
e|-------------------8-----5-----------------------|------5----------------|
B|--8---5---8---5----8-----5-----------------------|------5----------------|
G|--9---6---9---6----10----7-----------------------|------6----------------|
D|--10--7---10--7----10----7-----------------------|------7----------------|
A|--10--7---10--7----8-----5-----------------------|------7----------------|
E|--8---5---8---5----------------------------------|------5----------------|
 Outro chords                                       Ending chord

| /  slide up
|   slide down
| h  hammer-on
| p  pull-off
| ~  vibrato
| +  harmonic
| x  Mute note
============================================================================ 

Placebo — Plasticine

 Artist: Placebo
Song: Plasticine
Album: Sleeping With Ghosts
Tabbed by: Mark
Email: Feel_wick@hotmail.com

Standard tuning

Intro/Verse 
e|-----------------------------------------------------------------------------------
B|-----------------------------------------------------------------------------------
G|-----------------------------------------------------------------------------------
D|-10-10-10-10-10-10-10-10-10-10-10-10-10-10--7-7-7-7-7-7-7--14-14-14-14-14-14-14-14- (X2)
A|-10-10-10-10-10-10-10-10-10-10-10-10-10-10--7-7-7-7-7-7-7--14-14-14-14-14-14-14-14-
E|-8--8--8--8--8--8--8--8--8--8--8--8--8--8---5-5-5-5-5-5-5--12-12-12-12-12-12-12-12-

e|----------------------------------------------------------------------
B|----------------------------------------------------------------------
G|----------------------------------------------------------------------
D|-12-12-12-12-12-12-12-12-12--9-9-9-9-9-9-9-9--14-14-14-14-14-14-14-14-
A|-12-12-12-12-12-12-12-12-12--9-9-9-9-9-9-9-9--14-14-14-14-14-14-14-14-
E|-10-10-10-10-10-10-10-10-10--7-7-7-7-7-7-7-7--12-12-12-12-12-12-12-12-

e|----------------------------------------------------
B|----------------------------------------------------
G|----------------------------------------------------
D|-7-7-7-7-7-7-7--14-14-14-14-14-14-14-14-14-14-14-14-
A|-7-7-7-7-7-7-7--14-14-14-14-14-14-14-14-14-14-14-14-
E|-5-5-5-5-5-5-5--12-12-12-12-12-12-12-12-12-12-12-12-

Repeat Verse

Chorus (0.47)
e|------------------------------------
B|------------------------------------
G|------------------------------------
D|---7------14------------------------ (X4)
A|---7------14------------------------
E|---5------12------6-6-7-6-7-6-7-6-4-

Repeat Verse

Repeat Chorus

Solo (2.01)
e|-------------------------------------------------------------------
B|-------------------------------------------------------------------
G|-------------------------------------------------------------------
D|--7-7-7-7-7-7-7-9-9-9-9-9-9-9-10-10-10-10-10-10-10-8-8-8-8-8-8-8-8- (X2)
A|-------------------------------------------------------------------
E|-------------------------------------------------------------------

then
e|------------------------------------------------------------------------------------
B|------------------------------------------------------------------------------------
G|------------------------------------------------------------------------------------
D|10-10-10-10-10-10-10-11-11-11-11-11-11-11-12-12-12-12-12-12-12-13-13-13-13-13-13-13-
A|------------------------------------------------------------------------------------
E|------------------------------------------------------------------------------------

E|------------------------------------------------------------------------------------
B|------------------------------------------------------------------------------------
G|------------------------------------------------------------------------------------
D|-14-14-14-14-14-14-14-15-15-15-15-15-15-15-16-16-16-16-16-16-16-17b-17b-17b-17b-17b-
A|------------------------------------------------------------------------------------
E|------------------------------------------------------------------------------------

Repeat Chorus

Outro (2.51)
e|--------------------------------------------------------
B|--------------------------------------------------------
G|--------------------------------------------------------
D|-10-7-7-7-7--10-7-7-7-7--12-12-12-12-12--14-14-14-14-14- (X4)
A|-10-7-7-7-7--10-7-7-7-7--12-12-12-12-12--14-14-14-14-14-
E|-8--5-5-5-5--8--5-5-5-5--10-10-10-10-10--12-12-12-12-12-

End on
e|----
B|----
G|----
D|--7-
A|--7-
E|--5-