Портал для гитаристов
gtars.ru

Placebo — Sleeping With Ghosts

 Song: Sleeping With Ghosts
Artist: Placebo
Album: Sleeping With Ghosts
Tuning: Standard (EADGBe)

Great song, i can't believe nobody tabbed it yet. Well here are the tabs.
I didn't tab all the changes because there are loads of overdubs and layers
of guitar on this song and that's fuckin hard to tab. Anyway enjoy!

Gtr1: lead, light overdrive, some echo, bridge pick up
Gtr2: rythm acoustic
Gtr3: piano like, some echo
Gtr4: keyboard

A#: x1331x
C#: x4664x

Intro

Gtr1 with piano backing
e----------------------------------------------------
B-18-18-18--18-16-16-16--16-14-14-14--14-13-13-13-13-
G---------------------------------------------------- x2
D----------------------------------------------------
A----------------------------------------------------
E----------------------------------------------------
Gtr3
e---------------------------------------
B---------------------------------------
G---------------------------------------
D-10-11-----10-11----10--11----11-10----
A-------11--------11--------------------
E---------------------------------------
Gtr2
A#     C#  

Verse

Gtr2
A#     C#
Gtr3
e---------------------------------------
B---------------------------------------
G---------------------------------------
D-10-11-----10-11----10--11----11-10----
A-------11--------11--------------------
E---------------------------------------

Chorus

Gtr1
e----------------------------------------------------
B-18-18-18--18-16-16-16--16-14-14-14--14-13-13-13-13-
G---------------------------------------------------- x2
D----------------------------------------------------
A----------------------------------------------------
E----------------------------------------------------
Gtr2
A#    C#
Gtr4
e-------------------------------------------------------
B-------------------------------------------------------
G----------------8--------------------------------------
D--8-10--8-11--8----8-10--8-11--------------------------
A-------------------------------------------------------
E-------------------------------------------------------

Verse 2

Same as chorus but without guitar 1

Bridge
e--------------------------------------------------------
B--------------------------------------------------------
G---------------------------------11-10-8----------------
D---15--13--11--10---------------------------------------
A--------------------------------------------------------
E--------------------------------------------------------

You should be able to figure the rest by yourself it's always the same

tabbed by BoF feel free to send me feedback 
and corrections at Bof_mu@caramail.com 
Аккорд A#Аккорд C#

Placebo — Sleeping With Ghosts

 Tabbed By : PeaRce
e-mail: Cobains_ghost@hotmail.com

Tuning:EADG

Pretty simple song really, just this - 

G|-----------------------|
D|-----------------------|
A|-----------------8--8--|    x2
E|-6-6-9-66--6--6--------|

G|-----------------------------------|
D|-----------------------------------|
A|------4--------------4-------------|    x2
E|-2-2----22x---02-2-2---22-2---4-4--|

Use these parts everytime the bass comes in. I cant be
bothered to write when that is, half the song is just guitar