Портал для гитаристов
gtars.ru

Prodigy — Firestarter

 #----------------------------------PLEASE NOTE--------------------------------#
#This file is the author's own work and represents their interpretation of the#
#song. You may only use this file for private study, scholarship, or research.#
#-----------------------------------------------------------------------------#

Date: Thu, 19 Mar 1998 18:05:00 +0000
From: Hayward 
Subject: p/prodigy/firestarter.tab

FIRESTARTER - Prodigy

>From the album, Fat Of The Land

Tabbed by Luke Hayward 12/2/98
d.hayward@virgin.net

I know, I know, the Prodigy aren't a metal band, and this is perhaps a pretty
poor song, but hell, it's still a good riff that you can impress all your
techno mates with when you go to a party. That is, of course, if you're like me,
you always take your guitar to parties...   🙂

NB:  This riff is sampled once on the original recording and then looped,
     so it is exactly the same each time through (obviously).


|------------------------------|------------------------------|
|------------------------------|--------------BU--------------|
|--/15--15--15--15--15--15--15-|-15------14-------(16)--------|
|------------------------------|-----16-----------------------|
|------------------------------|------------------------------|
|------------------------------|------------------------------|

That's it, with decent tone you will be the light of all future parties and
reknowned for being the weirdo who brings all his FX pedals with him!
Just a quick note, Jim Davies who sampled this riff for Fat... used a
Digitech Whammy pedal for that bend on the 14th. Of course you can just
jam it up yourself, but I know there are pedantic people out there who'd
just love to know that. 
Аккорд FX

Prodigy — Firestarter

  ~~ THE PrOdiGy
fiResTarteR

tabed by: SPORK141@aol.com


===========================================================================
FIRESTARTER:

INTRO:  (W DIST. & wah)

E|------------------------------------------------------------------|
B|---11-----11------11-----/---9-------/-11-----/-13----------------|
G|---13^----13^----13^----/---11^----/-13^----/-15^-----------------|
D|------------------------------------------------------------------|
A|-------(double bends)---------------------------------------------|
E|------------------------------------------------------------------|

VERSE:  (W DIST. & wah)

E|-----------------------------------------------------------|
B|-----------------------------------------------------------|
G|--14--14--14--14--14--14--14---ect..-----------------------|
D|-----------------------------------------------------------|
A|-----------------------------------------------------------|
E|-----------------------------------------------------------|

I?m the firesTarTa   |   tWisteD fIresTarTa

E|--------------------------------------------------------|
B|--------------------------------------------------------|
G|-13-13-13-13-13-13/14-14-14-14-14-14--------------------|
D|--------------------------------------------------------|
A|--------------------------------------------------------|
E|--------------------------------------------------------|


==========================================================================

~