Портал для гитаристов
gtars.ru

Prodigy — Fuel My Fire

 Исполнение The Prodigy - это всего лишь ковер-версия,
а оригинал песни пренадлежит группе L7.

Intro:        
 4 |--3-3-3-3---7-7-7-7---4-4-4-4---4-х-х-4-х-х-4--|
 5 |--3-3-3-3---7-7-7-7---4-4-4-4---4-х-х-4-х-х-4--|
 6 |--1-1-1-1---5-5-5-5---2-2-2-2---2-х-х-2-х-х-2--|


 4 |--4--4--4--4-----|
 5 |--4--4--4--4-----|
 6 |--2--2--2--2-----|
    I´ve got word of thanks

 4 |--7--7--7--7------------3--3--3--3--|
 5 |--7--7--7--7------------3--3--3--3--|
 6 |--5--5--5--5------------1--1--1--1--|
    Thanks that I´d like to say

(оригинально-играется покругу) 
    For the rage that I feel
    The rage that I feel today
    Gotta stack, gotta stack
    Stack of chips on my shoulder
    In everything I do ´cause I made, I made
    I made the mistake of trusting you

Chorus:
 4 |--3-3-3-3---7-7-7-7---|
 5 |--3-3-3-3---7-7-7-7---|
 6 |--1-1-1-1---5-5-5-5---|
                                                    
 4 |---4--4--4--4--4--4--4--|
 5 |---4--4--4--4--4--4--4--|
 6 |---2--2--2--2--2--2--2--|
    People like you just fuel my fire
    People like you just fuel my fire
    People like you just fuel my fire

 4 |---4--4--4--4--4--4---4-х-х-4-х-х-4--|
 5 |---4--4--4--4--4--4---4-х-х-4-х-х-4--|
 6 |---2--2--2--2--2--2---2-х-х-2-х-х-2--| 
    People like you just burn...

 4 |---4--4--4--7-7-7-7--3-3-3-3--|
 5 |---4--4--4--7-7-7-7--3-3-3-3--|
 6 |---2--2--2--5-5-5-5--1-1-1-1--|
     You liаr...
     You liаr... 
     You liаr...
     You liаr...
 

    Yeah, my layers are thick
    And I got a bad attitude
    Yeah, that knife in my back
    Has fingerprints that belong to you
    Got a grudge, got a grudge
    Got a grudge that I´m holding for as long as I live
    ´Cause you lied, you lied, you lied to my face
    And that´s something that I can´t forgive


    Yeah, people like you just fuel my fire
    Yeah, people like you just fuel my fire
    Yeah, people like you just fuel my fire
    People like you just burn!

    You liar... 
    you liar...
    you liar...
    you liar...

    Yeah, people like you just fuel my fire
    Yeah, people like you just fuel my fire
    People like you just fuel my fire
    While people like you just burn!
    
    You liar... 
    you liar...
    you liar...
    you liar...