Портал для гитаристов
gtars.ru

Prodigy — No Good

 Intro:		Dm
1---1-1-1-0-0-0-1-1-1-0-0-0-1-1-3-3-1-1-0-1-1-1-0-0-0-1-1-1-0------------
2---3-3-3-3-3-3-3-3-3-3-3-3-3-3-3-3-3-3-3-3-3-3-3-3-3-3-3-3-3------------
3---2-2-2-2-2-2-2-2-2-2-2-2-2-2-2-2-2-2-2-2-2-2-2-2-2-2-2-2-2------------
4---0-0-0-0-0-0-0-0-0-0-0-0-0-0-0-0-0-0-0-0-0-0-0-0-0-0-0-0-0------------
5------------------------------------------------------------------------
6------------------------------------------------------------------------
(зажмите как Dm a потом убирайте указательный и добовляйте мизинец)

Main:		   Dm               Gm         Am
1--------------------------------------------------------------------------
2-------------------------------------------------------1---3-1-3----------
3-----------2-0-2---2-3-2-0-0-----------0---2---3---2----------------------
4---0---3-----------------------3---3--------------------------------------
5--------------------------------------------------------------------------
6--------------------------------------------------------------------------
(аккорды может игать вторая гитара... можно и без неё)

   Dm              Gm          Am
1-------1---5-3-5---5-6-5-3-3---1---1---3---5---6---5---8--10-8-10---------
2---3----------------------------------------------------------------------
3--------------------------------------------------------------------------
4--------------------------------------------------------------------------
5--------------------------------------------------------------------------
6--------------------------------------------------------------------------
(тоже самое что выше, но на октаву выше, тоже хорошо бы сыграть.)

Chours:		
1---5---------------------------------------5------------------------------
2---6---------------------------------------6------------------------------
3---7---------------------------------------7------------------------------
4---7---------------------------------------7------------------------------
5---5---------------------------------------5------------------------------
6--------------------------------------------------------------------------
   You'r not good for me, I don't need no body
1---3--------------------5-------------------------------------------------
2---3--------------------5-------------------------------------------------
3---3--------------------5-------------------------------------------------
4---5--------------------7-------------------------------------------------
5---5--------------------7-------------------------------------------------
6---3--------------------5-------------------------------------------------
   Don't need no one, that's no good for me. 
Аккорд DmАккорд GmАккорд Am